Abba

Money, Money, Money Tabs



More from Abba

Abba Tabs
Abba Chords
Abba Lyrics

ABBA: Money Money Money
arranged for solo guitar
( fingerstyle )

Intro:
* . . . * . . . * . . . * . . .
|-0-0-0-0-0-0----0----------------1-------0-0------------>5------|
|-1-1-1-1-1-1---1-4-4-4-4-4-4----43---1---1-1------------<5------|
|-2-2-2-2-2-2--2--2-2-2-2-2-2--25-2-----2-1-1------------>5------|
|-------------2---3-3-3-3-3-3-3---0-------2-2-----7------<7------|
|-0-0-0-0-0-0-------------------------------------7--------------|
|-------------------------------------------------5--------------|
h

* . . . * . . .
|----0---0---0---0---0---0---0----|
|---1---1---1---1---1---1---1-----|
|--4---4---4---4---4---4---4------|
|-------------------------------2-|
|-0---0---0---0---0---0---0---0---|
|---------------------------------|


Verse
* . . . * . . . * . . . * . . .
|-----------------------------------------1-1---0----0---0---0----|
|(1---1---1---1---0---0---0)--------------3-3---1---1---1---1-----|
|---------------------------2-2-1---------1-1---2--4---4---4------|
2-2-3-3-2-2-3-3-2-2-3-3-2-2-----------2---0---2-----------------2-|
|-0---0---0---0-----------------------------------0---0---0---0---|
|-----------------4---4---4---4---0-0---0------(0)----------------|
h

* . . . * . . . * . . . * . . .
|-----------------------------------------1-1---0----0---0---0---0|
|(1---1---1---1---0---0---0)--------------3-3---1---1---1---1---1-|
|---------------------------2-2-1---------1-1---2--4---4---4---4--|
2-2-3-3-2-2-3-3-2-2-3-3-2-2-----------2---0---2-------------------|
|-0---0---0---0-----------------------------------0---0---0---0---|
|-----------------4---4---4---4---0-0---0-------0-----------------|
h

* . . . * . . . * . . . * . . .
|-----------------------------------------------------------------|
|-3-3---1-------1-0-0---1-----------3-3---1-1-----0-0---10--------|
|-4-4---2---2---2-1-1---2-----------3-3---2-2-----0-0-----2-----2-|
|-2-----2-------2-2-2---2-----------------------3-----------3-----|
|-0---0---0---0---0---0---0---------------------------------------|
|-----------------------------3---1-----1-----1---1---1---1---0---|
p

* . . . * . . . *
|---------------------------------0----------|
|---0-0------00------00-----1-1-0-0----------|
2-2-----2-2-----2-2-----2-2-------1----------|
|-0---0---0---0---1---1---1---1---2----------|
|---------------------------------2----------|
|---------------------------------0----------|

7/8 9/8
* . . . * . . . .
|-0-1---0-------0-1---0-----------|
|-0---3---1-3-0-0---3---1-3-0-1---|
|-1-----------------2---0---------|
|---------------------------3-----|
|---------------------------------|
|---------------------------------|


Chorus:
* . . . * . . . * . . . * . . .
|-----0-------0---------------------------0-0---------------------|
|-1-3-1---0-1---4-----4-------4-3-----3-1-1-1---1---------431-1---|
|-2-4---2-------4---2-4-2-4-5---2-----4-2-------2------------2--2-|
|-----------------------------------------------2-----------------|
|-0---------------2-----------------------3-3-----0---0---0---0---|
|---------------------------------0-------------------------------|
pp

* . . . * . . . * . . . * . . .
|-----0-------0---------------------------0-0-------------------1-|
|-1-3-1---0-1---4-----4-------4-3-----3-1-1-1---1---------431-----|
|-2-4---2-------4---2-4-2-4-5---2-----4-2-------2-------------2---|
|-----------------------------------------------2-----------------|
|-0---------------2-----------------------3-3-----0---0---0---0---|
|---------------------------------0-------------------------------|
pp

* . . . * . . . * . . . * . . .
|----(1)----31--0-----0---0-1---------1-0-1-0---------------------|
|-------------3---------3-------------2---2-----3---------4---3---|
|---------------------1---1----------(2---2)--2-----------5---4---|
|-0-------0---------2-0---2-------------------020---------3---2---|
|-----3-0-----3-0-------2-----020---0-2---3-----------------------|
|-----------------0--------------------------------------(1)--0---|
p h h h h

* . . . * . . .
|-----0-----0-------------0-0-----|
|-1-3-1-1-3-1---3---------1-1---1-|
|-2-4---2-4-----4-----4-2-1-1---2-|
|-------------010---------2-2---2-|
|-0-------------------------------|
|---------------------------------|
h

repeat Intro - Verse (without the 15th measure) -
- Chorus - Intro (first 4 measures)



Arranged by PD.

Pull off and hammer on notations are written below the staves.
This arrangement is not easy to play. You can simplify it.
Get this song at amazon.com      Ebay     Ringtones Ringtones  


Learn to play: Songwriting, Piano, Harmonica, Guitar
Also available at Muzikum: ABBA - Money, Money, Money lyrics

Related Abba Tabs

I Do I Do I Do I Do tabs
Hasta Maana tabs
Bang A Boomerang tabs
Me And I tabs
Fernando tabs
Andante Andante tabs
I Wonder tabs
Our Last Summer tabs
I Am The City tabs
Cassandra tabs
When I Kissed The Teacher tabs
As Good As New tabs
Whan All Is Said And Done tabs
The Name Of The Game tabs
One Man One Woman tabs
Sos tabs
Visitors tabs
Honey Honey tabs
Name Of The Game tabs
Why Did It Have To Be Me tabs


Guitar Tabs









All tabs are property and copyright of their owners. All tabs provided for educational purposes only. Privacy Policy, DMCA