A Perfect Circle

A Perfect Circle - Renholder guitar tab

# F# B E G# C#

Gtr 1 and 3: Capo on the 3rd fret, so it sounds

( E A D G B E )

Riff A

e-----------0-------------0----------

b-------------4---------4---4--------

g-0-------0-----0-----0--------------

d---2---2-----------2----------------

a-----0-----------0------------------

e------------------------------------

Piano arr. for gtr.

Gtr 2.

e-----11-12-14-15-14-12-11---------------------

b-11------------------------13---11-13---13----

g----------------------------------------12----

d----------------------------------------------

a----------------------------------------------

e----------------------------------------------

Interlude:

gtr 3

e-3----------2---------0-----------------------

b-3----------3---------2-----------------------

g-2----------2---------2-----------------------

d-0----------0---------2-----------------------

a----------------------0-----------------------

e----------------------------------------------

gtr 1

e---------0-------0-----0----------------------

b-----------4---4-----4---4--------------------

g-2p0---0-----0-----0-------0------------------

d-----0-----------------------0----------------

a----------------------------------------------

e----------------------------------------------

Get this song at:  amazon.com sheetmusicplus.com

Share your thoughts

0 Comments found