A Perfect Circle

A Perfect Circle - Orestes (acoustic) guitar tab

Title: Orestes acoustic

Artist: A Perfect Circle

Album: Mer de Noms

Instrument: 6 String Guitar

Tabbed by: Danny H. (Brasky310@yahoo.com)

Notes:

Insert any equipment, symbols,

other infomation etc..

Awesome song, strange thing is when i started tabbing it the full chords he was playing

didnt

sound right, so i tuned the high Eb down to Db and now them being played open sounds SICK.

haha

if u hold 3 fret on Bb it should give u the Db for ur Eb.

Gtr 1 Verse

Db|--0-0000-0-000-0-000-0-0-0-000--0-0-0-0-0-000-0-0---------------||

Bb|--0-0000-0-000-0-000-0-0-0-000--0-0-0-0-0-000-0-0---------------||

Gb|--4-4444-4/777-0-000-2-2-4-4444-4/9-9-9-0-000-0-0---------------||

Db|--4-4444-4/777-5-555-2-2-4-4444-4/9-9-9-5-555-2-7---------------||

Ab|--2-2222-2/555-5-555-0-0-2-2222-2/7-7-7-5-555-2-7---------------||

Eb|---------------3-333--------------------3-333-0-5---------------||

Db|--0-0000-0-000-0-000-0-0-0-000--0-0-0-0-0-000-0-0---------------||

Bb|--0-0000-0-000-0-000-0-0-0-000--0-0-0-0-0-000-0-0---------------||

Gb|--4-4444-4/777-0-000-2-2-4-4444-4/9-9-9-0-000-0-0---------------||

Db|--4-4444-4/777-5-555-2-2-4-4444-4/9-9-9-5-555-2-4---------------||Every fourth time

Ab|--2-2222-2/555-5-555-0-0-2-2222-2/7-7-7-5-555-2-5---------------||play this.

Eb|---------------3-333--------------------3-333-0-3---------------||

Chorus

Db|--0-0-000-0000-0-000-00--0-0-00-0-00-0-00-----------------------||

Bb|--0-0-000-0000-0-000-00--0-0-00-0-00-0-00-----------------------||

Gb|--4-4-444-4444-2-222-22--0-0-00-0-00-0-00-----------------------||

Db|--4-4-444-4444-2-222-22--5-5-55-5-55-5-55-----------------------||

Ab|--2-2-222-2222-0-000-00--5-5-55-5-55-5-55-----------------------||

Eb|-------------------------3-3-33-3-33-3-33-----------------------||

Cut away.....Clear Snip away and sever this

Interlude

Db|--0-0-00-0-0-0-0-0-0-0-0-0-0-00-0-00-0-00-0-0-0-0-0-0-0-0-------||

Bb|--0-0-00-0-0-0-0-0-0-0-0-0-0-00-0-00-0-00-0-0-0-0-0-0-0-0-------||

Gb|--4-4-44-4-4-0-0-0-2-2-2-4-4-44-4-44-4-44-4-4-0-0-0-2-2-2-------||

Db|--4-4-44-4-4-5-5-5-2-2-2-4-4-44-4-44-4-44-4-4-5-5-5-2-2-2-------||

Ab|--2-2-22-2-2-5-5-5-0-0-0-2-2-22-2-22-2-22-2-2-5-5-5-0-0-0-------||

Eb|-------------3-3-3----------------------------3-3-3-------------||

gets soft, quiet louder louder

Db|----------------------------------------------------------------||

Bb|----------------------------------------------------------------||

Gb|--4-4-44-4-4-5-55--7-77-----------------------------------------||

Db|--4-4-44-4-4-5-55--7-77-----------------------------------------||

Ab|--2-2-22-2-2-3-33--5-55-----------------------------------------||

Eb|----------------------------------------------------------------||

Bridge

Db|----------------------------------------------------------------||

Bb|----------------------------------------------------------------||

Gb|-2/4-4-4-4-2/4-4-4-4-----------------2/4------------------------||

Db|-2/4-4-4-4-2/4-4-4-4-5-5-5-5-7-7-72-2/4------------------------||x1

Ab|-0/2-2-2-2-0/2-2-2-2-5-5-5-5-7-7-72-0/2------------------------||

Eb|---------------------3-3-3-3-5-5-5

Get this song at:  amazon.com sheetmusicplus.com

Share your thoughts

0 Comments found