A Perfect Circle

Pet (5 String) Bass Tabs



More from A Perfect Circle

A Perfect Circle Tabs
A Perfect Circle Chords
A Perfect Circle Bass
A Perfect Circle Lyrics




Band:A Perfect Circle
Album: 13th Step
Track: 10#
Tabbed By: Josh Clayton

Verse
G-------------------------------------------------------------
D-------------------------------------------------------------
A-------------------------------------------------------------
E-------------------------------------------------------------
B-5p4-4-----2-4-x-x-4br---2-2-2-------------------------------
^
Bend half a note___|

G---------------------------------|-----------------|----------
D---------------------------------|-----------------|----------
A---------------------------------|-Verse-Variation-|----------
E---------------------------------|-----------------|-----------
B-5p4-4-----2-4-x-x-4br---2-2-2/--|-----------------|----------
^
Bend half a note___|

Verse variation 1
G-----------------
D-4---4-4-4-4-4\--
A-----------------
E-----------------
B-19-19-19-19-----

Verse x1
Verse variation 2
G-----------------
D-4-4----4--------
A-----\6---4-6----
E-----------------
B-----------------

Rest

Chorus
G-------------------------------------------------------------
D-------------------------------------------------------------
A-------------------------------------------------------------
E-------------------------------------------------------------
B-7---7/--9---9\--4-------4-----------------------------------

Verse x1

Verse Variation 3
G------------------
D-4---4-4-6----6\--
A------------------
E------------------
B------------------

Verse x1

Verse Variation 4
G----------------------
D----------------------
A-9-9\6/11b-\6b-r---\--
E----------------------
B----------------------


Rest
Chorus x4
Verse x1

Verse Variation 5
G-----------------
D-4---4-4---------
A---------4---4\--
E-----------------
B-----------------

Verse x1
Verse Variation 1 x1
Rest

Bridge
G------------------------------------------------------------------
D------------------------------------------------------------------
A--666666666666666666-44444444-2222222-----------------------------
E------------------------------------------------------------------
B------------------------------------------------------------------


Bridge
G------------------------------------------------------------------
D------------------------------------------------------------------
A-6\------7---6-------\------7---6---4-------4---4-4\--0-0---0---0-
E------------------------------------------------------------------
B-----4/-----------------4\----------------------------------------

G------------------------------------------------------------------
D------------------------------------------------------------------
A-6\------7---6-------\------7---6---4-------4---4-4/--9-9---9-9-9-
E------------------------------------------------------------------
B-----4/-----------------4\----------------------------------------

G------------------------------------------------------------------
D------------------------------------------------------------------
A-6\------7---6-------\------7---6---4-------4---4-4\--0-0---0---0-
E------------------------------------------------------------------
B-----4/-----------------4\----------------------------------------

G------------------------------------------------------------------
D------------------------------------------------------------------
A-6\------7---6-------\------7---6---4-------4---4-4/9-9-9-9-9-9-9-
E------------------------------------------------------------------
B-----4/-----------------4\----------------------------------------


Chorus x7.5
G------------------------------------------------------------------
D------------------------------------------------------------------
A------------------------------------------------------------------
E------------------------------------------------------------------
B-7---7---7-9---9-9\--4---4---0-4---4-4----------------------------

Ending x3 then...
G------------------------|------------------------------------------
D------------------------|------------------------------------------
A------------------------|------------------------------------------
E------------------------|------------------------------------------
B-5-4---4-------4-x---2--|-5-4---4---4------------------------------

:o The low B sounds Feirce *thumbs up* have fun with this one!



Get this song at amazon.com      Ebay     Ringtones Ringtones  


Learn to play: Songwriting, Piano, Harmonica, Guitar
More A Perfect Circle lyrics available at Muzikum

Related A Perfect Circle Bass Tabs

The Outsider bass
Rose bass
The package bass
Weak And Powerless Eadg bass
Vanishing bass
People Are People bass
Brena bass
Passive (the Right Way) bass
Imagine bass
Crimes bass
Magdalena bass
Thomas bass
Gravity (complete) bass
Lets Have A War bass
Choke Bass Tab bass
Blue bass
Pet Ver bass
The Package (5-string) bass
Orestes bass
Pet (5 String) bass


Guitar Tabs









All tabs are property and copyright of their owners. All tabs provided for educational purposes only. Privacy Policy, DMCA