A Perfect Circle

Passive Bass Tabs



More from A Perfect Circle

A Perfect Circle Tabs
A Perfect Circle Chords
A Perfect Circle Bass
A Perfect Circle Lyrics



A Perfect Circle-Passive



I'm not sure if this tab will win awards on accuracy but it's the way i like to play it.

please rate.



Tuning-Standard





Intro

(0:00)

G]-------------------------5-------------------------------5---|

D]-5------\8-------3---------------5------08-------3-----------|

A]-------------------------------------------------------------|

E]-------------------------------------------------------------|

^slide lightly with fingertip

verse

(0:22)

G]---------------------------------------------------------------|

D]3h5555-555 5-3h5-6p5-3h5555-555-5-3h5-6p5-3h5555-555 5-3h5-6p5-|

A]---------------------------------------------------------------|

E]---------------------------------------------------------------|



G]---------------------| ------------------------------------------|

D]3h5555-555 5-3h5-6p5-|*3h5555-555-5-3h5-6p5-3h5555-555 5-3h5-6p5-|

A]---------------------|*------------------------------------------|

E]---------------------| ------------------------------------------|



G]------------------------------------------- |

D]3h5555-555 5-3h5-6p5-3-3-\8-8-88-----------*|x4

A]-------------------------------------------*|

E]------------------------------------------- |

[Drum Roll]



Chorus

(1:07)

G]--------------------------------------------------5555555555555555-|

D]5555555555555555\8888888888888888/3333333333333333-----------------|

A]-------------------------------------------------------------------|

E]-------------------------------------------------------------------|



G]--------------------------------------------------5~(hold note)---|

D]5555555555555555\8888888888888888/3333333333333333----------------|

A]------------------------------------------------------------------|

E]------------------------------------------------------------------|

-I usually don't do straight-forward eigth notes, instead i'll take out, soften, and

particular notes to lock in the drum beat and singing. However, you can play it how you like.

Verse

(1:33)

G]| ------------------------------------------|

D]|*3h5555-555-5-3h5-6p5-3h5555-555 5-3h5-6p5-|

A]|*------------------------------------------|

E]| ------------------------------------------|



G]------------------------------------------- |

D]3h5555-555 5-3h5-6p5-3-3-\8-8-88-----------*|x2

A]-------------------------------------------*|

E]------------------------------------------- |

[Drum Roll]

Chorus

(1:56)

G]--------------------------------------------------5555555555555555-|

D]5555555555555555\8888888888888888/3333333333333333-----------------|

A]-------------------------------------------------------------------|

E]-------------------------------------------------------------------|



G]--------------------------------------------------5555555555555555-|

D]5555555555555555\8888888888888888/3333333333333333-----------------|

A]-------------------------------------------------------------------|

E]-------------------------------------------------------------------|



Bridge

(2:19)

G]| ------------- |x5

D]|*-/5\-----\8/-*|

A]|*-------------*|

E]| ------------- |

^all slides are very long

Chorus

(2:45)

G]--------------------------------------------------5555555555555555-|

D]5555555555555555\8888888888888888/3333333333333333-----------------|

A]-------------------------------------------------------------------|

E]-------------------------------------------------------------------|



G]--------------------------------------------------5555555555555555-|

D]5555555555555555\8888888888888888/3333333333333333-----------------|

A]-------------------------------------------------------------------|

E]-------------------------------------------------------------------|



Fill

(3:08)

G]----------------------------------555555555555555-8888888888888888-|

D]5555555555555555\8888888888888888----------------------------------|

A]-------------------------------------------------------------------|

E]-------------------------------------------------------------------|

I just kinda made this up on the spot once, don't know how right it is.

Outro

(3:30)

G]-------------------------5-------------------------------5---|

D]-5------\8-------3---------------5------08-------3-----------|

A]-------------------------------------------------------------|

E]-------------------------------------------------------------|

Play quiter than introAdded by tabs-database.com and our distinguished partners
Get this song at amazon.com      Ebay     Ringtones Ringtones  


Learn to play: Songwriting, Piano, Harmonica, Guitar
More A Perfect Circle lyrics available at Muzikum

Related A Perfect Circle Tabs

A Stranger tabs
Orestes (acoustic) tabs
Thinking of you tabs
Imagine tabs
3 Libras3 tabs
Hollow2 tabs
Passive Intro tabs
Wake The Dead tabs
By And Down tabs
Passive Bass tabs
Thirteenth Step tabs
3 Libras2 tabs
Orestes2 tabs
3 Libras Acoustic tabs
Judith Solo tabs
Crimes tabs
Weak and powerless tabs
Brena tabs
Judith2 tabs
Blue tabs


Guitar Tabs









All tabs are property and copyright of their owners. All tabs provided for educational purposes only. Privacy Policy, DMCA