A Perfect Circle

Lullaby Tabs



More from A Perfect Circle

A Perfect Circle Tabs
A Perfect Circle Chords
A Perfect Circle Bass
A Perfect Circle Lyrics



Band: A Perfect Circle
Title: Lullaby
Tabber: Warheart89


Intro/Chorus:
Eb----------------------------------------------------------------|
Bb----------------------------------------------------------------|
Gb----------------------------------------------------------------|
Db--2-2---0h22/32--0-0-0----------------------------------------|
Ab--2-2---0h22/32--0-0-0----------------------------------------|
Db--2-2---0h22/32--0-0-0----------------------------------------|

Play 2X
Eb----------------------------------------------------------|
Bb----------------------------------------------------------|
Gb---------------------------/12-12-12-12-12-12-12-12-------|
Db-2-2---0h2---2/32--0-0-0---------------------------------|
Ab-2-2---0h2---2/32--0-0-0--/10-10-10-10-10-10-10-10-------|
Db-2-2---0h2---2/32--0-0-0---------------------------------|

Eb---------------------------------------------------------|
Bb---------------------------------------------------------|
Gb---------------------------------------------------------|
Db--2-2---0h2----2/32--0-0-05-x-5-x-5--------------|
Ab--2-2---0h2----2/32--0-0-05-x-5-x-5--------------|
Db--2-2---0h2----2/32--0-0-05-x-5-x-5--------------|

Verse:
Eb----------------------------------------------------------------|
Bb----------------------------------------------------------------|
Gb----------------------------------------------------------------|
Db-----2-3-2------2-3-2----------2-3-2------2-3-2-----------------|
Ab---2--------------------------2-------------------------2-------|
Db-2-------------2---------0--2------------2---------0--2---------|

Eb----------------------------------------------------------------|
Bb----------------------------------------------------------------|
Gb----------------------------------------------------------------|
Db-----2-3-2---2-3-2--------5------------7---2----4---------------|
Ab---2---------------------5------------7----2--------------------|
Db-2----------2--------0--5--------5--7------2--------------------|


Repeat Intro/Chorus Riff Except 4th time through play this:
Eb----------------------------------------------------------|
Bb----------------------------------------------------------|
Gb---------------------------10-9--14-10--9--9--------------|
Db--2-20h2---2/32---0-0-0---------------------------------|
Ab--2-20h2---2/32---0-0-0--8--7--12--8--7--7--------------|
Db--2-20h2--2/32---0-0-0---------------------------------|


Eb-----------------------------------------------------------|
Bb-----------------------------------------------------------|
Gb--7---------------9------7/10----9----7----9---------------|
Db----------7-------9------7/10----9-------------------------|
Ab--5-------7-------7------5/-8----7----5----7---------------|
Db----------7------------------------------------------------|

Eb------------------------------------|
Bb------------------------------------|
Gb--16--16--14---16---12--------------|
Db------------------------------------|
Ab--14--14--12---14---10--------------|
Db------------------------------------|

Eb-------------------------------------------------------|
Bb-------------------------------------------------------|
Gb-16---16--14--16--9--9--10--9------9--9-10---9---10----|
Db------------------9--9--10--9------9--9-10---9---10----|
Ab-14---14--12--14--7--7--8---7------7--7--8---7---8-----|
Db-------------------------------------------------------|

Play Intro/Chorus Riff:

Eb-----------------------------------------------------------------|
Bb-----------------------------------------------------------------|
Gb----12---11---9----9/12--11--9---9/12--11---12--11---------------|
Db--------------------------------------------------------7---9----|
Ab----10---9----7----7/10---9---7---7/10--9---10---9---------------|
Db--------------------------------------------------------7---9----|

Eb--------------------------------------------------------------|
Bb--------------------------------------------------------------|
Gb4/9---11--12--14---16----------------------------------------|
Db--------------------------------------------------------------|
Ab2/7---9---10--12---14----------------------------------------|
Db--------------------------------------------------------------|

With Wah: Repeat 3X
Eb----------------------------------------------------------|
Bb----------------------------------------------------------|
Gb-12-12-12-12-12-//12-12-12-12-12-//12-12-12--11--9--------|
Db----------------------------------------------------------|
Ab-10-10-10-10-10-//10-10-10-10-10-//10-10-10--9---7--------|
Db----------------------------------------------------------|

With Wah
Eb-------------------------------------------------------------------------|
Bb-------------------------------------------------------------------------|
Gb-11-11-11--11-11-//11/12--12-12-12---14-14-14-14-14-14-16-16-16-16-16----|
Db-------------------------------------------------------------------------|
Ab-9--9---9---9--9-//9-/10--10-10-10---12-12-12-12-12-12-14-14-14-14-14----|
Db-------------------------------------------------------------------------|

Solo
Eb----------------------------------------------------------------|
Bb----------------------------------------------------------------|
Gb--16---14----13---14-16--14---16-19-18-16---14-13-14-13--------|
Db----------------------------------------------------------------|
Ab--14---12----11---12--14--12---14-17-16-14---12-11-12-11--------|
Db----------------------------------------------------------------|

Eb--------------------------------------------------------------------------|
Bb--------------------------------------------------------------------------|
Gb-7/9-9--9-129-9--9-7/9-9--9-7/9-1413-7/9-7/9-9--9-129-913-13/14--16-16-|
Db--------------------------------------------------------------------------|
Ab-5/7-7--7-107-7--7-5/7-7--7-5/7-1211-5/7-5/7-7--7-107-711-11/12--14-14-|
Db--------------------------------------------------------------------------|


Eb-------------------------------------------------|
Bb-------------------------------------------------|
Gb-------------------------------------------------|
Db-2-0--0-0--5--0--0-0--2--0--0-0--5--0--0-0-------|
Ab-2-0--0-0--5--0--0-0--2--0--0-0--5--0--0-0-------|
Db-2-0--0-0--5--0--0-0--2--0--0-0--5--0--0-0-------|


Get this song at amazon.com      Ebay     Ringtones Ringtones  


Learn to play: Songwriting, Piano, Harmonica, Guitar
Also available at Muzikum: A Perfect Circle - Lullaby lyrics

Related A Perfect Circle Tabs

Orestes Solo tabs
Brena Solo tabs
Thomas Intro tabs
Hollow2 tabs
Gravity tabs
Choke tabs
3 Libras2 tabs
Orestes (2) tabs
Orestes2 tabs
The Hollow tabs
Imagine tabs
Thirteenth Step tabs
Orestes tabs
Passive (standard) tabs
Sleeping Beauty Acoustic Live tabs
3 Libras (Version 3) tabs
Passive tabs
3 Libras (Version 2) tabs
The Nurse Who Loved Me (Live) tabs
Judith Solo tabs


Guitar Tabs









All tabs are property and copyright of their owners. All tabs provided for educational purposes only. Privacy Policy, DMCA