A Perfect Circle

Gravity Tabs



More from A Perfect Circle

A Perfect Circle Tabs
A Perfect Circle Chords
A Perfect Circle Bass
A Perfect Circle Lyrics



Gravity

A Perfect Circle





Gtr I (C# F# B E G# C#) - 'Gtr 1(clean) w/ delay'

Gtr II (C# F# B E G# C#) - 'Gtr 2(clean) w/ chorus'

Gtr III (C# F# B E G# C#) - 'Gtr 3(clean) w/ reverb'

Gtr IV (C# F# B E G# C#) - 'Gtr 4(clean)'

Gtr V (C# F# B E G# C#) - 'Gtr 1w/ dist'

Gtr VI (C# F# B E G# C#) - 'Gtr 3 w/ dist'





Intro

Gtr I

Q E E E E Q E E E E E E

|----------------------------|

|----------------------------|

|------7----------7----------|

|-9--x-----9-9--x-----9-9-10p|

|----------------------------|

|----------------------------|





Q E E E E Q E E E E E E 4x Q E E E E Q E E E E Q

||------------------------------||---------------------------||

||o----------------------------o||---------------------------||

||-------7----------7-----------||------7----------7---------||

||--9--x-----9-9--x-----9-9-10p=||=9--x-----9-9--x-----9-9---||

||o----------------------------o||---------------------------||

||------------------------------||---------------------------||





Verse

Em

Gtr II

E E E E E E E E E E E E E E E E E E E E E E E E E E E E

|-----7----7--------7---7-----7---|-7------7-----7------7----7------7-|

|---5------------5----------5-----|------5------------5-----------5---|

|-7-----7-----7-------7---7-----7-|----7------7----7------7-----7-----|

|---------------------------------|-----------------------------------|

|---------------------------------|-----------------------------------|

|---------------------------------|-----------------------------------|

|

| Gtr I

| Q E E +Q +W Q. E +Q Q. E +Q Q

|-------0-(0)---(0)---------------|----------------0------------------|

|---------------------------------|-----------------------------------|

|-----9---------------------------|--------7-(7)----------7-(7)-------|

|-9-------------------------------|-7-----------------------------7---|

|---------------------------------|-----------------------------------|

|---------------------------------|-----------------------------------|





E E E E E E E E E E E E E E

|-----7----7--------7---7-------7---|

|---5------------5------------5-----|

|-7-----7-----7-------7----7------7-|

|-----------------------------------|

|-----------------------------------|

|-----------------------------------|

|

| Q E E +Q +Q. E +Q. E

|-----------------------------------|

|-----------------------------------|

|-------0-(0)---(0)-----0-(0)-----0-|

|-----4-----------------4-(4)-----4-|

|-7---------------------------------|

|-----------------------------------|





E E E E E E E E E E E E E E E E E E E E E E E E E E E E

|-7------7-----7-------7---7-----7-|-----7----7--------7---7-----7---|

|------5-------------5---------5---|---5------------5----------5-----|

|----7------7-----7------7---7-----|-7-----7-----7-------7---7-----7-|

|----------------------------------|---------------------------------|

|----------------------------------|---------------------------------|

|----------------------------------|---------------------------------|

|

| Q. E +Q +Q E E Q Q Q E E +Q +W

|----------------------------------|-------0-(0)---(0)---------------|

|----------------------------------|---------------------------------|

|--------0-(0)---(0)---0-0-0-------|-----9---------------------------|

|--------4-(4)---(4)---4-4-4-------|-9-------------------------------|

|-7--------------------------------|---------------------------------|

|----------------------------------|---------------------------------|





E E E E E E E E E E E E E E

|-7------7-----7------7----7------7-|

|------5------------5-----------5---|

|----7------7----7------7-----7-----|

|-----------------------------------|

|-----------------------------------|

|-----------------------------------|

|

| Q. E +Q Q. E +Q Q

|----------------0------------------|

|-----------------------------------|

|--------7-(7)----------7-(7)-------|

|-7-----------------------------7---|

|-----------------------------------|

|-----------------------------------|





E E E E E E E E E E E E E E E E E E E E E E E E E E E E

|-----7----7--------7---7-------7---|-7------7-----7-------7---7-----7-||

|---5------------5------------5-----|------5-------------5---------5---||

|-7-----7-----7-------7----7------7-|----7------7-----7------7---7-----||

|-----------------------------------|----------------------------------||

|-----------------------------------|----------------------------------||

|-----------------------------------|----------------------------------||

|

| Q E E +Q +Q. E +Q. E Q. E +Q +Q E E Q Q

|-----------------------------------|----------------------------------||

|-----------------------------------|----------------------------------||

|-------0-(0)---(0)-----0-(0)-----0-|--------0-(0)---(0)---0-0-0-------||

|-----4-----------------4-(4)-----4-|--------4-(4)---(4)---4-4-4-------||

|-7---------------------------------|-7--------------------------------||

|-----------------------------------|----------------------------------||





Chorus

E7sus2 Gmaj7

Gtr III

H. +W H. +W

| | | |

/ / / /



Gtr I

Q. E Q H. E E Q. E +Q H. E E

|-----------------------------|----------------------------------|

|-------12-12--12-------------|-------12-(12)b13r=(12)-----------|

|-----------------------------|----------------------------------|

|-14--------------------14s12-|-12--------------------------12s9-|

|-----------------------------|----------------------------------|

|-----------------------------|----------------------------------|





Asus2

H. +W

| |

/ /



Q. E +E E Q. E +E E E E

|----------------------------------|

|----------------------------------|

|------7-(7)---------7-(7)---------|

|-9----------9--9----------9-9-10p=|

|----------------------------------|

|----------------------------------|





Em E7sus2

H. +W H. +W

| | | |

/ / / /



H. +H. +Q Q. E Q H. E E

|------------------------|-----------------------------|

|------------------------|-------12-12--12-------------|

|------------------------|-----------------------------|

|-9-------(9)------(9)/--|-14--------------------14s12-|

|------------------------|-----------------------------|

|------------------------|-----------------------------|





Dsus2

H. +W

| |

/ /



Q. E +Q H. E E

|----------------------------------|

|-------12-(12)b13r=(12)-----------|

|----------------------------------|

|-12--------------------------12s9-|

|----------------------------------|

|----------------------------------|





G

H. +W

| |

/ /



W

|---------------------------------|

|---------------------------------|

|---------------------------------|

|---------------------------------|

|---------------------------------|

|---------------------------------|

|

| Gtr I

| Q. E +E E Q. E +E E E E

|---------------------------------|

|---------------------------------|

|------7-(7)---------7-(7)--------|

|-9----------9--9----------9-9-10p|

|---------------------------------|

|---------------------------------|

|

| Gtr IV

| W

|---------------------------------|

|---------------------------------|

|---------------------------------|

|---------------------------------|

|---------------------------------|

|---------------------------------|





Asus2 Em

H. +W W

| |

/ /



W E E E E E E E E E E E E E E

|----------------------|------7---7-------7---7-----7---|

|----------------------|----5----------5----------5-----|

|----------------------|-7------7---7-------7---7-----7-|

|----------------------|--------------------------------|

|----------------------|--------------------------------|

|----------------------|--------------------------------|

|

| H. +Q Q H H. +W

|----------------------|--------------------------------|

|----------------------|--------------------------------|

|----------------------|--------------------------------|

|-9-------(9)--7--7----|-9------------(9)---------------|

|----------------------|--------------------------------|

|----------------------|--------------------------------|

|

| W Q E E E E Q E E E E E E

|----------------------|--------------------------------|

|----------------------|--------------------------------|

|----------------------|--------------------------------|

|----------------------|--------------------------------|

|----------------------|-7----7-5-7-0--7----7-5-7-0---5-|

|----------------------|----------------------------7---|





E E E E E E E E E E E E E E

|--7------7---7-------7---7-----7-|

|-------5-----------5---------5---|

|-----7-----7----7------7---7-----|

|---------------------------------|

|---------------------------------|

|---------------------------------|

|

| +H. +W

|---------------------------------|

|---------------------------------|

|---------------------------------|

|-(9)-----------(9)---------------|

|---------------------------------|

|---------------------------------|

|

| Q E E E E Q E E E E E E

|---------------------------------|

|---------------------------------|

|---------------------------------|

|---------------------------------|

|--7----7-5-7-0--7----7-5-7-0---5-|

|-----------------------------7---|





E E E E E E E E E E E E E E E E E E E E E E E E E E E E

|-----7---7-----7---7-----7---|-7-----7---7-----7---7-----7-||

|---5---------5---------5-----|-----5---------5---------5---||

|-7-----7---7-----7---7-----7-|---7-----7---7-----7---7-----||

|-----------------------------|-----------------------------||

|-----------------------------|-----------------------------||

|-----------------------------|-----------------------------||

|

| W W

|-----------------------------|-----------------------------||

|-----------------------------|-----------------------------||

|-----------------------------|-----------------------------||

|-----------------------------|-----------------------------||

|-----------------------------|-----------------------------||

|-----------------------------|-----------------------------||

|

| Q E E E E Q E E E E E E Q E E E E Q E E E E E E

|-----------------------------|-----------------------------||

|-----------------------------|-----------------------------||

|-----------------------------|-----------------------------||

|-----------------------------|-----------------------------||

|-7---7-5-7-0-7---7-5-7-0---5-|-7---7-5-7-0-7---7-5-7-0---5-||

|-------------------------7---|-------------------------7---||





Verse

Em

Gtr II

E E E E E E E E E E E E E E

|-----7---7-----7---7-----7---|

|---5---------5---------5-----|

|-7-----7---7-----7---7-----7-|

|-----------------------------|

|-----------------------------|

|-----------------------------|

|

| Gtr IV

| Q E E E E Q E E E E E E

|-----------------------------|

|-----------------------------|

|-----------------------------|

|-----------------------------|

|-7---7-5-7-0-7---7-5-7-0---5-|

|-------------------------7---|





E E E E E E E E E E E E E E E E E E E E E E E E E E E E

|-7-----7---7-----7---7-----7-|-----7---7-----7---7-----7---|

|-----5---------5---------5---|---5---------5---------5-----|

|---7-----7---7-----7---7-----|-7-----7---7-----7---7-----7-|

|-----------------------------|-----------------------------|

|-----------------------------|-----------------------------|

|-----------------------------|-----------------------------|

|

| Q E E E E Q E E E E E E Q E E E E Q E E E E E E

|-----------------------------|-----------------------------|

|-----------------------------|-----------------------------|

|-----------------------------|-----------------------------|

|-----------------------------|-----------------------------|

|-7---7-5-7-0-7---7-5-7-0---5-|-7---7-5-7-0-7---7-5-7-0---5-|

|-------------------------7---|-------------------------7---|





E E E E E E E E E E E E E E

|-7-----7---7-----7---7-----7-|

|-----5---------5---------5---|

|---7-----7---7-----7---7-----|

|-----------------------------|

|-----------------------------|

|-----------------------------|

|

| Q E E E E Q E E E E E E

|-----------------------------|

|-----------------------------|

|-----------------------------|

|-----------------------------|

|-7---7-5-7-0-7---7-5-7-0---5-|

|-------------------------7---|





E E E E E E E E E E E E E E E E E E E E E E E E E E E E

|-----7---7-----7---7-----7---|-7-----7---7-----7---7-----7-|

|---5---------5---------5-----|-----5---------5---------5---|

|-7-----7---7-----7---7-----7-|---7-----7---7-----7---7-----|

|-----------------------------|-----------------------------|

|-----------------------------|-----------------------------|

|-----------------------------|-----------------------------|

|

| Q E E E E Q E E E E E E Q E E E E Q E E E E E E

|-----------------------------|-----------------------------|

|-----------------------------|-----------------------------|

|-----------------------------|-----------------------------|

|-----------------------------|-----------------------------|

|-7---7-5-7-0-7---7-5-7-0---5-|-7---7-5-7-0-7---7-5-7-0---5-|

|-------------------------7---|-------------------------7---|





Gt

E E E E E E E E E E E E E E E E E E E E E E E E E E E E

|-----7---7-----7---7-----7---|-7-----7---7-----7---7-----7-||

|---5---------5---------5-----|-----5---------5---------5---||

|-7-----7---7-----7---7-----7-|---7-----7---7-----7---7-----||

|-----------------------------|-----------------------------||

|-----------------------------|-----------------------------||

|-----------------------------|-----------------------------||

|

| Gt

| Q E E E E Q E E E E E E Q E E E E Q E E E E E E

|-----------------------------|-----------------------------||

|-----------------------------|-----------------------------||

|-----------------------------|-----------------------------||

|-----------------------------|-----------------------------||

|-7---7-5-7-0-7---7-5-7-0---5-|-7---7-5-7-0-7---7-5-7-0---5-||

|-------------------------7---|-------------------------7---||





Chorus

Emadd9

r V

Q. E Q H. E E

|------------------------------------|

|-------12-12----12------------------|

|------------------------------------|

|-14---------------------------14s12-|

|------------------------------------|

|------------------------------------|

|

|r III

| Q. E +E E Q. E +E E E E

|--0-----0-(0)-0--0----0-(0)-0--0--0-|

|--0-----0-(0)-0--0----0-(0)-0--0--0-|

|--0-----0-(0)-0--0----0-(0)-0--0--0-|

|--4-----4-(4)-4--4----4-(4)-4--4--4-|

|--2-----2-(2)-2--2----2-(2)-2--2--2-|

|--0-----0-(0)-0--0----0-(0)-0--0--0-|





Q. E +Q H. E E

|----------------------------------------|

|-------12-(12)b13r==(12)----------------|

|----------------------------------------|

|-12--------------------------------12s9-|

|----------------------------------------|

|----------------------------------------|

|

| Q. E +E E Q. E +E E E E

|--0-----0--(0)----0---0----0-(0)-0--0-0-|

|--0-----0--(0)----0---0----0-(0)-0--0-0-|

|--0-----0--(0)----0---0----0-(0)-0--0-0-|

|--5-----5--(5)----5---5----5-(5)-5--5-5-|

|--5-----5--(5)----5---5----5-(5)-5--5-5-|

|--3-----3--(3)----3---3----3-(3)-3--3-3-|





A7sus2 Em

Q. E +E E Q. E +E E E E H. +H. +Q

|--------------------------------|-----------------------------------|

|--------------------------------|-----------------------------------|

|------7-(7)--------7-(7)--------|-----------------------------------|

|-9----------9-9----------9-9-10p|=9------------(9)-----------(9)/---|

|--------------------------------|-----------------------------------|

|--------------------------------|-----------------------------------|

|

| Q. E +E E Q. E +E E E E Q. E +E E Q. E +E E E E

|-0----0-(0)-0-0----0-(0)-0-0--0-|-0----0-(0)-0--0----0-(0)-0--0---0-|

|-0----0-(0)-0-0----0-(0)-0-0--0-|-0----0-(0)-0--0----0-(0)-0--0---0-|

|-0----0-(0)-0-0----0-(0)-0-0--0-|-0----0-(0)-0--0----0-(0)-0--0---0-|

|-2----2-(2)-2-2----2-(2)-2-2--2-|-2----2-(2)-2--2----2-(2)-2--2---2-|

|-0----0-(0)-0-0----0-(0)-0-0--0-|-2----2-(2)-2--2----2-(2)-2--2---2-|

|--------------------------------|-0----0-(0)-0--0----0-(0)-0--0---0-|





Emadd9

Q. E Q H. E E

|------------------------------------|

|-------12-12----12------------------|

|------------------------------------|

|-14---------------------------14s12-|

|------------------------------------|

|------------------------------------|

|

| Q. E +E E Q. E +E E E E

|--0-----0-(0)-0--0----0-(0)-0--0--0-|

|--0-----0-(0)-0--0----0-(0)-0--0--0-|

|--0-----0-(0)-0--0----0-(0)-0--0--0-|

|--4-----4-(4)-4--4----4-(4)-4--4--4-|

|--2-----2-(2)-2--2----2-(2)-2--2--2-|

|--0-----0-(0)-0--0----0-(0)-0--0--0-|





G6/D A7sus2

Q. E +Q H. E E Q. E +E E Q. E +E E Q

|----------------------------------------|--------------------------------|

|-------12-(12)b13r==(12)----------------|--------------------------------|

|----------------------------------------|------7-(7)--------7-(7)--------|

|-12--------------------------------12s9-|-9----------9-9----------9-9/---|

|----------------------------------------|--------------------------------|

|----------------------------------------|--------------------------------|

|

| Q. E +E E Q. E +E E E E Q. E +E E Q. E +E E E E

|--0-----0--(0)----0---0----0-(0)-0--0-0-|-0----0-(0)-0-0----0-(0)-0-0--0-|

|--0-----0--(0)----0---0----0-(0)-0--0-0-|-0----0-(0)-0-0----0-(0)-0-0--0-|

|--0-----0--(0)----0---0----0-(0)-0--0-0-|-0----0-(0)-0-0----0-(0)-0-0--0-|

|--5-----5--(5)----5---5----5-(5)-5--5-5-|-2----2-(2)-2-2----2-(2)-2-2--2-|

|--5-----5--(5)----5---5----5-(5)-5--5-5-|-0----0-(0)-0-0----0-(0)-0-0--0-|

|--3-----3--(3)----3---3----3-(3)-3--3-3-|--------------------------------|





Emadd9

Q. E Q H. E E

|------------------------------------|

|-------12-12----12------------------|

|------------------------------------|

|-14---------------------------14s12-|

|------------------------------------|

|------------------------------------|

|

| Q. E +E E Q. E +E E E E

|--0-----0-(0)-0--0----0-(0)-0--0--0-|

|--0-----0-(0)-0--0----0-(0)-0--0--0-|

|--0-----0-(0)-0--0----0-(0)-0--0--0-|

|--4-----4-(4)-4--4----4-(4)-4--4--4-|

|--2-----2-(2)-2--2----2-(2)-2--2--2-|

|--0-----0-(0)-0--0----0-(0)-0--0--0-|





G6/D A7sus2

Q. E +Q H. E E Q. E +E E Q. E +E E E E

|----------------------------------------|---------------------------------|

|-------12-(12)b13r==(12)----------------|---------------------------------|

|----------------------------------------|------7-(7)--------7-(7)---------|

|-12--------------------------------12s9-|-9----------9-9----------9-9-10p=|

|----------------------------------------|---------------------------------|

|----------------------------------------|---------------------------------|

|

| Q. E +E E Q. E +E E E E Q. E +E E Q. E +E E E E

|--0-----0--(0)----0---0----0-(0)-0--0-0-|-0----0-(0)-0-0----0-(0)-0-0--0--|

|--0-----0--(0)----0---0----0-(0)-0--0-0-|-0----0-(0)-0-0----0-(0)-0-0--0--|

|--0-----0--(0)----0---0----0-(0)-0--0-0-|-0----0-(0)-0-0----0-(0)-0-0--0--|

|--5-----5--(5)----5---5----5-(5)-5--5-5-|-2----2-(2)-2-2----2-(2)-2-2--2--|

|--5-----5--(5)----5---5----5-(5)-5--5-5-|-0----0-(0)-0-0----0-(0)-0-0--0--|

|--3-----3--(3)----3---3----3-(3)-3--3-3-|---------------------------------|





Em Emadd9

H. +H. +Q Q. E Q H. E E

|-----------------------------------|------------------------------------|

|-----------------------------------|-------12-12----12------------------|

|-----------------------------------|------------------------------------|

|-9------------(9)-----------(9)/---|-14---------------------------14s12-|

|-----------------------------------|------------------------------------|

|-----------------------------------|------------------------------------|

|

| Q. E +E E Q. E +E E E E Q. E +E E Q. E +E E E E

|-0----0-(0)-0--0----0-(0)-0--0---0-|--0-----0-(0)-0--0----0-(0)-0--0--0-|

|-0----0-(0)-0--0----0-(0)-0--0---0-|--0-----0-(0)-0--0----0-(0)-0--0--0-|

|-0----0-(0)-0--0----0-(0)-0--0---0-|--0-----0-(0)-0--0----0-(0)-0--0--0-|

|-2----2-(2)-2--2----2-(2)-2--2---2-|--4-----4-(4)-4--4----4-(4)-4--4--4-|

|-2----2-(2)-2--2----2-(2)-2--2---2-|--2-----2-(2)-2--2----2-(2)-2--2--2-|

|-0----0-(0)-0--0----0-(0)-0--0---0-|--0-----0-(0)-0--0----0-(0)-0--0--0-|





G6/D A7sus2

Q. E +Q H. E E Q. E +E E Q. E +E E E E

|----------------------------------------|-------------------------------|

|-------12-(12)b13r==(12)----------------|-------------------------------|

|----------------------------------------|------7-(7)--------7-(7)-----7-|

|-12--------------------------------12s9-|-9----------9-9----------9-9---|

|----------------------------------------|-------------------------------|

|----------------------------------------|-------------------------------|

|

| Q. E +E E Q. E +E E E E Q. E +E E Q. E +E E E E

|--0-----0--(0)----0---0----0-(0)-0--0-0-|-0----0-(0)-0-0----0-(0)-0-0-0-|

|--0-----0--(0)----0---0----0-(0)-0--0-0-|-0----0-(0)-0-0----0-(0)-0-0-0-|

|--0-----0--(0)----0---0----0-(0)-0--0-0-|-0----0-(0)-0-0----0-(0)-0-0-0-|

|--5-----5--(5)----5---5----5-(5)-5--5-5-|-2----2-(2)-2-2----2-(2)-2-2-2-|

|--5-----5--(5)----5---5----5-(5)-5--5-5-|-0----0-(0)-0-0----0-(0)-0-0-0-|

|--3-----3--(3)----3---3----3-(3)-3--3-3-|-------------------------------|





Cadd9 Em

4/4

W H. E E E E E E E E E E E E E E E E Q

|-----------------|------------------|-----------------|-----------------|

|-----------------|------------------|-----------------|-------------0---|

|-7---------------|--7-----------7s9-|-9-9-9-9-9-9-9-9-|-9-9-9-9-9-9-----|

|-----------------|------------------|-----------------|-----------------|

|-----------------|------------------|-----------------|-----------------|

|-----------------|------------------|-----------------|-----------------|

|

| Gtr VI

| Q. E +E E Q +E Q E E E Q E E E E E E E E E E E E E E E E

|-0----0-(0)-0-0--|-(0)-0--0-0-0-0---|-----------------|-----------------|

|-3----3-(3)-3-3--|-(3)-3--3-3-3-3---|-----------------|-----------------|

|-0----0-(0)-0-0--|-(0)-0--0-0-0-0---|-----------------|-----------------|

|-2----2-(2)-2-2--|-(2)-2--2-2-2-2---|-----------------|-----------------|

|-3----3-(3)-3-3--|-(3)-3--3-3-3-3---|-0-0-0-----------|-----------------|

|-----------------|------------------|-------3-3-3-2-2-|-2-3-3-3-2h3-2p0-|





7/4

\0.5___________________

H. +W +H +Q +W

|-12-------(12)--------------|-(12)-----(12)-----(12)-----------|

|--0--------(0)--------------|--(0)------(0)------(0)-----------|

|----------------------------|----------------------------------|

|----------------------------|----------------------------------|

|----------------------------|----------------------------------|

|----------------------------|----------------------------------|

|

| \0.5_______________________________________

| H. +H. +Q +H. +H. +Q

|----------------------------|----------------------------------|

|----------------------------|----------------------------------|

|----------------------------|----------------------------------|

|----------------------------|----------------------------------|

|--7--------(7)------(7)-----|-([7])--------------(7)------(7)--|

|--0--------(0)------(0)-----|-([0])--------------(0)------(0)--|





3/4

|

+H. +H +H +Q +H E Q E E E

|-(12)------(12)----([12])----------|-([12])--(12)----|-------------------||

|--(0)-------(0)-----([0])----------|--([0])---(0)----|-13-13--13-13p12---||

|-----------------------------------|-----------------|-------------------||

|-----------------------------------|-----------------|-------------------||

|-----------------------------------|-----------------|-------------------||

|-----------------------------------|-----------------|-------------------||

|

| Gtr II

| | \1

| +H. +H. +E +E +H. E Q E E E

|-----------------------------------|-----------------|-------------------||

|-----------------------------------|-----------------|-------------------||

|-----------------------------------|-----------------|--5--5---5--5p=4---||

|-----------------------------------|-----------------|-------------------||

|--(7)-------(7)------------(7)-(7)-|--([7])----------|-------------------||

|--(0)-------(0)------------(0)-(0)-|---(0)-----------|-------------------||





Cmaj7

H. +H. +Q Q +Q

|----------|----------------|---------------------|

|----------|----------------|---------------------|

|----------|----------------|---------------------|

|-14-------|-(14)-----------|-(14)--12---([12])---|

|----------|----------------|---------------------|

|----------|----------------|---------------------|

|

| H. Q. E +E E Q. E +E E

|--0-------|---0------------|---------------------|

|--0-------|--------0-(0)---|---------------------|

|--4-------|----------------|---5------4---(4)--5-|

|--5-------|--------------5-|---------------------|

|--3-------|----------------|---------------------|

|----------|----------------|---------------------|





Em

+Q H E Q E E E

|----------------|------------------|

|----------------|-13-13--13-13p12--|

|----------------|------------------|

|-([12])--14-----|------------------|

|----------------|------------------|

|----------------|------------------|

|

| Q Q Q E Q E E E

|----------------|------------------|

|----0-----------|------------------|

|----------5-----|--5--5---5--5p=4--|

|-------------5--|------------------|

|----------------|------------------|

|----------------|------------------|





Cmaj7

H. +H. +Q H

|----------|----------------|------------------|

|----------|----------------|------------------|

|----------|----------------|------------------|

|-14-------|-(14)-----------|-(14)--12---------|

|----------|----------------|------------------|

|----------|----------------|------------------|

|

| H. Q. E +E E Q. E +E E

|--0-------|---0------------|------------------|

|--0-------|--------0-(0)---|------------------|

|--4-------|----------------|---5------4-(4)-5-|

|--5-------|--------------5-|------------------|

|--3-------|----------------|------------------|

|----------|----------------|------------------|





Em

H +Q E Q E E E

|---------------|------------------|

|---------------|-13-13--13-13p12--|

|---------------|------------------|

|---------------|------------------|

|-14-----(14)\--|------------------|

|---------------|------------------|

|

| Q Q Q E Q E E E

|---------------|------------------|

|--0------------|------------------|

|-----5---------|--5--5---5--5p=4--|

|----------5----|------------------|

|---------------|------------------|

|---------------|------------------|





Cmaj7

H. +H. +Q Q +Q

|----------|----------------|---------------------|

|----------|----------------|---------------------|

|----------|----------------|---------------------|

|-14-------|-(14)-----------|-(14)--12---([12])---|

|----------|----------------|---------------------|

|----------|----------------|---------------------|

|

| H. Q. E +E E Q. E E E

|--0-------|---0------------|---------------------|

|--0-------|--------0-(0)---|---------------------|

|--4-------|----------------|---5-----------4-----|

|--5-------|--------------5-|----------5--------5-|

|--3-------|----------------|---------------------|

|----------|----------------|---------------------|





Em

+Q H E Q E E E

|----------------|-20-20--20-20p19--|

|----------------|------------------|

|----------------|------------------|

|-([12])--14-----|------------------|

|----------------|------------------|

|----------------|------------------|

|

| Q Q Q E Q E E E

|----------------|------------------|

|----0-----------|------------------|

|----------5-----|--5--5---5--5p=4--|

|-------------5--|------------------|

|----------------|------------------|

|----------------|------------------|





Cmaj7

H. +H. +Q Q +Q +H +E E

|----------|----------------|---------------------|-----------------------|

|-17-------|-(17)-----------|-(17)----------------|-----------------------|

|----------|----------------|-------19---([19])---|-([19])-----([19])-14h=|

|----------|----------------|---------------------|-----------------------|

|----------|----------------|---------------------|-----------------------|

|----------|----------------|---------------------|-----------------------|

|

| H. Q. E +E E Q. E +E E Q Q E E

|--0-------|---0------------|---------------------|-----------------------|

|--0-------|--------0-(0)---|---------------------|----0------------------|

|--4-------|----------------|---5------4---(4)--5-|---------5-------------|

|--5-------|--------------5-|---------------------|---------------5s===4--|

|--3-------|----------------|---------------------|-----------------------|

|----------|----------------|---------------------|-----------------------|





Bsus4 Fm7b5

H. +H +Q H. Q Q Q

|----------|-----------------|----------|-----------------|

|----------|-----------------|----------|-----------------|

|-16-------|-(16)-----(16)\--|-14-------|-14b15r=14-------|

|----------|-----------------|----------|------------14\--|

|----------|-----------------|----------|-----------------|

|----------|-----------------|----------|-----------------|

|

| H. Q H H. +H.

|--0-------|---0-------------|--0-------|-(0)-------------|

|--0-------|-------0---------|--0-------|-(0)-------------|

|--4-------|-----------------|--2-------|-(2)-------------|

|--4-------|-----------------|--3-------|-(3)-------------|

|--3-------|-----------------|----------|-----------------|

|----------|-----------------|----------|-----------------|





Interlude

Em

7/4

PM----------------------------------|

Q. E E E Q. E E E E E 4x Q. E E E Q. E E E E E 3x

||-----------------------------------------||-||-----------------------------------------||

||o---------------------------------------o||-||o---------------------------------------o||

||-----------------------------------------||-||-----------------------------------------||

||-----------------------------------------||-||-----------------------------------------||

||o---------------------------------------o||-||o---------------------------------------o||

||--0----3b3.5--3--0-0----3b3.5--3--0-0-1--||-||--0----3b3.5--3--0-0----3b3.5--3--0-0-1--||

|

| Q. E +E E Q. E +E E E E 4x Q. E +E E Q. E +E E E E 3x

||--0----3-----(3)-0-0----3-----(3)-0-0-1--||-||--0----3-----(3)-0-0----3-----(3)-0-0-1--||

||o---------------------------------------o||-||o---------------------------------------o||

||-----------------------------------------||-||-----------------------------------------||

||-----------------------------------------||-||-----------------------------------------||

||o---------------------------------------o||-||o---------------------------------------o||

||-----------------------------------------||-||-----------------------------------------||





4/4

Q. E E E Q E E E E E E E E

|---------------------|-------------------------||

|---------------------|-------------------------||

|---------------------|-------------------------||

|---------------------|---------------9---9-----||

|---------------------|---------------7---7-----||

|-0----3b3.5--3--0-0--|--0--3b3.5-3-0-----------||

|

| Q. E +E E Q +E Q E E E E E

|-0----3-----(3)-0-0--|-(0)-3-------0-7---7-----||

|---------------------|---------------5---5-----||

|---------------------|-------------------------||

|---------------------|-------------------------||

|---------------------|-------------------------||

|---------------------|-------------------------||





Out-Chorus

Esus2 Dsus2(type 2)

Gtrs III, IV

E Q E Q E E +E E Q E E E E E Q E Q E E

| | | | | | | | | | | | | | | | | | |

/ / / / / / / / / / / / / / / / / / /



Gtr V

Q. E +H H. E E Q. E +Q Q

|---------------------|--------------------|---------------------------|

|--------12-(12)------|-12-----------------|--------12-(12)b14r=(12)---|

|---------------------|--------------------|---------------------------|

|-14------------------|--------------14s12-|-12------------------------|

|---------------------|--------------------|---------------------------|

|---------------------|--------------------|---------------------------|





Gsus2

+E E Q E E E E E Q E Q E E +E E Q E E E E

| | | | | | | | | | | | | | | | | | | |

/ / / / / / / / / / / / / / / / / / / /



+H. E E Q. E +Q Q +E Q E Q E E

|---------------------|----------------------|-------------------------|

|-(12)----------12s15-|-15-----15-(15)--15---|-(15)-12---12-12---12s13-|

|---------------------|----------------------|-------------------------|

|---------------------|----------------------|-------------------------|

|---------------------|----------------------|-------------------------|

|---------------------|----------------------|-------------------------|





Asus2V Esus2

E Q E Q E E +E E Q E E E E E Q E Q E E

| | | | | | | | | | | | | | | | | | |

/ / / / / / / / / / / / / / / / / / /



H. +E E Q E E E E Q Q. E +H

|---------------------|------12-12-12-12-12\---|---------------------|

|-12----------(12)s10-|-10---10-10-10-10-10\---|--------12-(12)------|

|---------------------|------------------------|---------------------|

|---------------------|------------------------|-14------------------|

|---------------------|------------------------|---------------------|

|---------------------|------------------------|---------------------|





Dsus2(type 2)

+E E Q E E E E E Q E Q E E +E E Q E E E E

| | | | | | | | | | | | | | | | | | | |

/ / / / / / / / / / / / / / / / / / / /



+H E E E E Q. E Q E E +E E Q E E Q

|-----------------------|---------------------|-------------------------|

|-(12)------12-12-12s14-|-14-----14-14--14s12-|-(12)-12-12--12-12-12\---|

|-----------------------|---------------------|-------------------------|

|-----------------------|---------------------|-------------------------|

|-----------------------|---------------------|-------------------------|

|-----------------------|---------------------|-------------------------|





Asus2V Csus2

E Q E Q E E +E E Q E E E E W

| | | | | | | | | | | | | |

/ / / / / / / / / / / / / /



Q. E E E Q +E Q E Q E E W

|-----------------|--------------------|-------|

|-----------------|--------------------|-------|

|-------7-7-------|-----7--------------|-------|

|-9---------9-9---|-(9)-----9-9---9s12-|-12----|

|-----------------|--------------------|-------|

|-----------------|--------------------|-------|





A7sus2

+W W +W

| | |

/ / /



Gtr I

H. E E W +H E E Q

|-----------------|-----------|-------------------|

|-----------------|-----------|---------12h13-12--|

|-----------------|-----------|-------------------|

|-[12]------12s14-|-14--------|-(14)--------------|

|-----------------|-----------|-------------------|

|-----------------|-----------|-------------------|





Cadd9 A7sus2

W +W W

| | |

/ / /



W +H. E E W

|-----------|-----------------|-------|

|-----------|-----------------|-------|

|-----------|-----------------|-------|

|-12--------|-(12)------12s14-|-14----|

|-----------|-----------------|-------|

|-----------|-----------------|-------|





Cadd9

+W W +W

| | |

/ / /



+Q. E +Q Q W +H. E E

|---------------------|-----------|-----------------|

|--------13-(13)--12--|-----------|-----------------|

|---------------------|-----------|-----------------|

|-(14)----------------|-12--------|-(12)------12s14-|

|---------------------|-----------|-----------------|

|---------------------|-----------|-----------------|





A7sus2 Cadd9

W +W W

| | |

/ / /



|--3--|

W H Q Q Q W

|-----------|-----------------|------*|

|-----------|-------12h13p12--|------*|

|-----------|-----------------|-7----*| Thats It. Easy

|-14--------|-14--------------|------*|

|-----------|-----------------|------*|

|------------------------------------*|

Added by tabs-database.com and our distinguished partners
Get this song at amazon.com      Ebay     Ringtones Ringtones  


Learn to play: Songwriting, Piano, Harmonica, Guitar
Also available at Muzikum: A Perfect Circle - Gravity lyrics

Related A Perfect Circle Tabs

Sleeping Beauty Acoustic Live tabs
3 Libras2 tabs
Orestes2 tabs
Thinking of you tabs
Hollow tabs
Brena Solo tabs
Renholder tabs
Orestes Solo tabs
Passive (standard) tabs
The Nurse Who Loved Me Live Version tabs
3 Libras Acoustic tabs
3 Libras4 tabs
Wake The Dead Solo tabs
Brena tabs
Orestes (2) tabs
Orestes Bass tabs
Over tabs
The Hollow tabs
3 libras tabs
Passive tabs


Guitar Tabs









All tabs are property and copyright of their owners. All tabs provided for educational purposes only. Privacy Policy, DMCA