A Perfect Circle

Blue Tabs



More from A Perfect Circle

A Perfect Circle Tabs
A Perfect Circle Chords
A Perfect Circle Bass
A Perfect Circle Lyrics



Tuning: C# F# B E G# C#


Intro:
Gtr.1 w/chorus, reverb & delay
|play 12 x |
|--------|-----------------------------|------------------------------|
|--------|-------------------6---------|------------------------------|
|--------|----------------7----7-------|------------------------------|
|---6p5--|--6p5--5-5-5--5---------6p5--|--6p5--5-5-5--5-5-5-5-5--6p5--|
|--------|-----------------------------|------------------------------|
|--------|-----------------------------|------------------------------|
|Riff A End Riff A|

Riff A is actually two parts arranged for one.

Fill 1 (0:53) There's more to it than this, but this is all you can hear.
|--------------------------------------|
|-11----11---------13h14--13p11-----11-|
|----10----10-------------------11-----|
|--------------------------------------|
|--------------------------------------|
|--------------------------------------|

Fill2 "Best to keep things in the shallow end..."
|-------------------------------|
|-------------------------------|
|-------------------------------|
|----5-5----5-5----5-5----5-5---|
|-6------6------6------6--------|
|-------------------------------|

Fill into Chorus
Gtr.2 w/dist. and slide
|------------------------------|
|-----------------------/13---|
|------------------------------|
|------------------------------|
|------------------------------|
|------------------------------|
|
|------------------------------|
|------------------------------|
|------------------------------|
|----5-5----5-5----5-5----5-5--|
|-3------3------3------3-------|
|------------------------------|

Chorus
|---------------------------------|---------------------------------|
|-12----------------------/13---|-8-------------------------------|
|---------------------------------|---------------------------------|
|---------------------------------|---------------------------------|
|---------------------------------|---------------------------------|
|---------------------------------|---------------------------------|
|
|Gtr.3 clean
|---------------------------------|---------------------------------|
|---------------------------------|---------------------------------|
|---------------------------------|---------------------------------|
|-5-5-5-5-5-5-5-5-5-5-5-5-5-5-5-5-|-3-3-3-3-3-3-3-3-3-3-3-3-3-3-3-3-|
|-x-x-x-x-x-x-x-x-x-x-x-x-x-x-x-x-|-x-x-x-x-x-x-x-x-x-x-x-x-x-x-x-x-|
|-3-3-3-3-3-3-3-3-3-3-3-3-3-3-3-3-|-1-1-1-1-1-1-1-1-1-1-1-1-1-1-1-1-|

|---------------------------------|---------------------------------|
|/15------------------------------|-(15)--------------------13------|
|---------------------------------|---------------------------------|
|---------------------------------|---------------------------------|
|---------------------------------|---------------------------------|
|---------------------------------|---------------------------------|
|
|---------------------------------|---------------------------------|
|---------------------------------|---------------------------------|
|---------------------------------|---------------------------------|
|-8-8-8-8-8-8-8-8-8-8-8-8-8-8-8-8-|-8-8-8-8-8-8-8-8-8-8-8-8-8-8-8-8-|
|-x-x-x-x-x-x-x-x-x-x-x-x-x-x-x-x-|-x-x-x-x-x-x-x-x-x-x-x-x-x-x-x-x-|
|-6-6-6-6-6-6-6-6-6-6-6-6-6-6-6-6-|-6-6-6-6-6-6-6-6-6-6-6-6-6-6-6-6-|

1st Interlude (After 1st Chorus)
fdbk......
|------------------|------------------|------------------|------------------|
|-13---------------|-(13)-------------|-(13)-------------|-(13)-------------|
|------------------|------------------|------------------|------------------|
|------------------|------------------|------------------|------------------|
|------------------|------------------|------------------|------------------|
|------------------|------------------|------------------|------------------|

2nd Interlude (After 2nd Chorus)
|-(8)--------|-(8)-----8b----------|-7---8p7-8p7--5b--------|-----------------|
|------------|---------------------|------------------------|-----------------|
|------------|---------------------|------------------------|-----------------|
|------------|---------------------|------------------------|-----------------|
|------------|---------------------|------------------------|-----------------|
|------------|---------------------|------------------------|-----------------|


|---8p7--8p7-------|-(7)-5b-----------8p|7--8--5b--------|-----------------|
|------------------|--------------------|----------------|-----------------|
|------------------|--------------------|----------------|-----------------|
|------------------|--------------------|----------------|-----------------|
|------------------|--------------------|----------------|-----------------|
|------------------|--------------------|----------------|-----------------|
There's another guitar performing feedback etc. I'll get that soon

Outro
Gtr.1 plays Riff A palm muted

Gtr.2 (What I have so far) w/infinite delay on last note
|-/7~~~~------------|-/7--------11------|
|-------------------|--------------------|
|-------------------|--------------------|
|-------------------|--------------------|
|-------------------|--------------------|
|-------------------|--------------------|


Get this song at amazon.com      Ebay     Ringtones Ringtones  


Learn to play: Songwriting, Piano, Harmonica, Guitar
Also available at Muzikum: A Perfect Circle - Blue lyrics

Related A Perfect Circle Tabs

Hollow2 tabs
Choke tabs
Lullaby tabs
When The Levee Breaks tabs
Imagine tabs
Pet tabs
Over tabs
Rose tabs
Thomas tabs
Passive tabs
The Outsider tabs
Wake The Dead tabs
Hollow Chorus Solo tabs
Renholder tabs
Sleeping Beauty Acoustic Live tabs
Orestes Bass tabs
3 Libras4 tabs
Wake The Dead Solo tabs
Sleeping Beauty (Live) tabs
Thomas Intro tabs


Guitar Tabs









All tabs are property and copyright of their owners. All tabs provided for educational purposes only. Privacy Policy, DMCA