A-hi Fi Serius

A-hi Fi Serius - T-shirt Money guitar tab

T-shirt money

by A

Tabbed by Trulte

Intro/verse-

e------------------------------|----------------------------

b------------------------------|----------------------------

g-7-7--9-9--12-12--14-14-14-14-|-----5-----5-----5---5-5----

d-x-x--x-x---x--x---x--x--x--x-|----------------------------

a-5-5--7-7--10-10--12-12-12-12-|---77--7-77--7-77--7--7-7---

E------------------------------|----------------------------

"who is the man who is the man...."(me)

e------------------------------|-------------------

b------------------------------|-------------------

g-7-7--9-9--12-12--11-11-11-11-|--77777777---------

d-x-x--x-x---x--x---x--x--x--x-|--xxxxxxxx---------

a-5-5--7-7--10-10---9-9-9-9--9-|--55555555---------

E------------------------------|-------------------

"why does he take control..."

chorus type bit

e---------------------------------------------------------------------

b---------------------------------------------------------------------

g---------------------------------------------------------------------

d-99999999999999999-5555555555555555555-99999999999999999-77777777777-

a-99999999999999999-5555555555555555555-99999999999999999-77777777777-

E-77777777777777777-3333333333333333333-77777777777777777-55555555555-

stuck half up        with no rope(?)   got no hope   they're mkin

i meant it you shoutin   s'not funny     t-shirt

                                                            money

dodgy words.

back to verse

then into the chorus again

but then.....

"i wana say things but....."

e---------------------------------------------------------------------

b---------------------------------------------------------------------

g---------------------------------------------------------------------

d-2222222222222----5-5555555555555---2-2222222222222---7-7777777777777

a-2222222222222----5-5555555555555---2-2222222222222---7-7777777777777

e-0000000000000----3-3333333333333---0-0000000000000---5-5555555555555

the the solo that i know, but can't b arsed to tab..if ur despertate email me.

the other parts are used but, work the order out urslef

end on D5  ie 7

      7

              5 :) there ya go

Get this song at:  amazon.com sheetmusicplus.com

Share your thoughts

0 Comments found