A. F. I.

A. F. I. - Morning Star guitar tab

Intro(2x)

P.M............................................................

1|----------------------------------------------------------------|

2|----------------------------------------------------------------|

3|----------------------------------------------------------------|

4|-99999999-99999999-6666666666666666-2222222-44444444-66666666---|

5|-77777777-66666666-4444444444444444-0000000-22222222-44444444---|

6|----------------------------------------------------------------|

Intro#2

P.M..........................................

1|------------------------------------------------------------------------------|

2|------------------------------------------------------------------------------|

3|--------------------------------------------44444444---------------66666666---|

4|-99999999-99999999-6666666666666666-2222222-44444444----2----4-----66666666---|

5|-77777777-66666666-4444444444444444-0000000-22222222--2---2-----2--44444444---|

6|------------------------------------------------------------------------------|

Chorus

1|------------------------------------------------|

2|------------------------------------------------|

3|-------4-44--6-66--4444--2-22--4-44--66666666---|

4|-4-44--4-44--6-66--4444--2-22--4-44--66666666---|

5|-4-44--2-22--4-44--2222--0-00--2-22--44444444---|

6|-2-22-------------------------------------------|

Then:

Intro(1x)

Intro#2

Chorus (2x)

Melody

P.M.....................................................

1|------------------------------------------------------------------------------------|

2|------------------------------------------------------------------------------------|

3|-------------------------------------------------------------------------66666666---|

4|-66666666-44444444-22222222----------66666666-44444444-2-222---2----4----66666666---|

5|-44444444-22222222-00000000-44444444-44444444-22222222-0-000-2---2-----2-44444444---|

6|----------------------------22222222------------------------------------------------|

1|-----------------------------------------------------------|

2|-----------------------------------------------------------|

3|-------------------------------------------------------2---|

4|-66666666-44444444-22222222----------66666666-44444444-2---|

5|-44444444-22222222-00000000-44444444-44444444-22222222-0---|

6|----------------------------22222222-----------------------|

Heavy Part

Distortion

1|-----------------------------------------------------------------------------------------|

2|-----------------------------------------------------------------------------------------|

3|-2222-4444-66666666-------4-44--6-66--4444--2-22--4-44--66666666--------4-44--6-66--4444-|

4|-2222-4444-66666666-4-44--4-44--6-66--4444--2-22--4-44--66666666--4-44--4-44--6-66--4444-|

5|-0000-2222-44444444-4-44--2-22--4-44--2222--0-00--2-22--44444444--4-44--2-22--4-44--2222-|

6|--------------------2-22------------------------------------------2-22-------------------|

1|------------------------|

2|-------------------6----|

3|-2-22--4-44--------6----|

4|-2-22--4-44--Slide-6----|

5|-0-00--2-22--------4----|

6|------------------------|

So thats it if you have any questions e-mail me at Nastytimy@aol.com.

Get this song at:  amazon.com sheetmusicplus.com

Share your thoughts

0 Comments found