A Dozen Furies

A Dozen Furies - Push Away guitar tab

From the album A Concept From Fire: Track nº4.

Riff1:

D|-------------------------------------------------------------------|

A|-------------------------------------------------------------------|

F|--9-99-----9-99-----9-99-------------------------------------------|

C|--8-88-----8-88-----8-88-------------------------------------------| x4

G|--7-77--0--7-77--0--7-77--0000-000---------------------------------|

C|--------0--------0--------0000-000---------------------------------|

. . .... ...

Riff2:

D|-------------------------------------------------------------------|

A|-------------------------------------------------------------------|

F|-------------------------------------------------------------------|

C|-------------------------------------------------------------------| x2

G|-------------------------------------------------------------------|

C|--1313131313-1414141414-171717171717171717171717171717-------------|

D|-------------------------------------------------------------------|

A|-------------------------------------------------------------------|

F|-------------------------------------------------------------------|

C|-------------------------------------------------------------------| x2

G|-------------------------------------------------------------------|

C|--11111-22222-555555555555555--------------------------------------|

Riff1: Fill:

D|-----------------------------------------|-------------------------|

A|-----------------------------------------|-------------------------|

F|--9-99-----9-99-----9-99------------x4---|-------------------------|

C|--8-88-----8-88-----8-88-----------------|-------------------------|

G|--7-77--0--7-77--0--7-77--0000-000-------|----------000------------|

C|--------0--------0--------0000-000-------|----------000------------|

. . .... ... ...

Chorus:

D|-------------------------------------------------------------------|

A|-------------------------------------------------------------------|

F|--3333333333333333333333333333--3--5-------------------------------|

C|--3333333333333333333333333333--3--5-------------------------------|

G|--1111111111111111111111111111--1--3-------------------------------|

C|-------------------------------------------------------------------|

x2

D|-------------------------------------------------------------------|

A|-------------------------------------------------------------------|

F|--2222222222222222222222222222--2----------------------------------|

C|--2222222222222222222222222222--2--3-------------------------------|

G|--0000000000000000000000000000--0--3-------------------------------|

C|-----------------------------------3-------------------------------|

Riff3:

Guitar1 Guitar2

D|-------------------------|-----------------------------------------|

A|-------------------------|-----------------------------------------|

F|-------------------------|--------8----10----12--------------------|

C|--1~---2~---5~-----------|--------x-----x-----x--------------------|

G|--1~---2~---5~-----------|--------6-----7----10--------------------|

C|--1~---2~---5~-----------|-----------------------------------------|

Riff4:

D|-------------------------------------------------------------------|

A|-------------------------------------------------------------------|

F|-------------------------------------------------------------------|

C|-------------------------------------------------------------------| x4

G|--3-2-3-2-33-2-3-2-3-2-3-2--555-555--------------------------------|

C|--3-2-3-2-33-2-3-2-3-2-3-2--555-555--------------------------------|

. . . . .. . . . . . . . ... ...

Riff1: Fill:

D|------------------------------------------|------------------------|

A|------------------------------------------|------------------------|

F|--9-99-----9-99-----9-99------------x4----|------------------------|

C|--8-88-----8-88-----8-88------------------|------------------------|

G|--7-77--0--7-77--0--7-77--0000-000--------|---------000------------|

C|--------0--------0--------0000-000--------|---------000------------|

. . .... ... ...

Chorus:

D|-------------------------------------------------------------------|

A|-------------------------------------------------------------------|

F|--3333333333333333333333333333--3--5-------------------------------|

C|--3333333333333333333333333333--3--5-------------------------------|

G|--1111111111111111111111111111--1--3-------------------------------|

C|-------------------------------------------------------------------|

x4

D|-------------------------------------------------------------------|

A|-------------------------------------------------------------------|

F|--2222222222222222222222222222--2----------------------------------|

C|--2222222222222222222222222222--2--3-------------------------------|

G|--0000000000000000000000000000--0--3-------------------------------|

C|-----------------------------------3-------------------------------|

Solo: (*: vibrato)

D|--------------------17-18--------------------------------------17~-----|

A|-------15*~-15-16-18--------------------13*~-13-13-1513-13-13----------|

F|--15-17------------------15*\\-----14-15--------------------------------|

C|-----------------------------------------------------------------------|

G|-----------------------------------------------------------------------|

C|-----------------------------------------------------------------------|

D|--------------------17-18----------------------------------17~18-17*~--|

A|-------15*~-15-16-18------------------13*~-13-13-1513-13-13------------|

F|--15-17------------------15*\\----14-15---------------------------------|

C|-----------------------------------------------------------------------|

G|-----------------------------------------------------------------------|

C|-----------------------------------------------------------------------|

Riff4: Ending:

D|------------------------------------------|-------------------------|

A|------------------------------------------|-------------------------|

F|-------------------------------------x7---|-------------------------|

C|------------------------------------------|-----5-5-5-5-5-5---------|

G|--3-2-3-2-33-2-3-2-3-2-3-2---555-555------|-----5-5-5-5-5-5---------|

C|--3-2-3-2-33-2-3-2-3-2-3-2---555-555------|-----5-5-5-5-5-5---------|

. . . . .. . . . . . . . ... ...

(notthelasttime)Added by tabs-database.com and our distinguished partners

Get this song at:  amazon.com sheetmusicplus.com

Share your thoughts

0 Comments found