A Dozen Furies

A Dozen Furies - By Any Means guitar tab

Dozen Fruies - By Any Means

This is my first tab so enjoy

Tuning drop C = c.G.C.F.A.D

key=

/ = slide down or up fret board

x = dont play

GUITAR 1 Intro x3

|---------------|-------------------|-----------------------------|

|---------------|-----------------4-|-----------------------------|

|---------------|-----------------2-|-----------------------------|

|-666/7---444---|---666/7---444-----|---666/7---444--33-33-333----|

|-444/5---222---|---444/5---222-----|---444/5---222--33-33-333----|

|---------------|-------------------|----------------33-33-333----|

GUITAR 2 Intro - Wait for GUITAR 1 to play 1st riff 2x

|--------------------------------------------------------------|

|--------------------------------------------------------------|

|--------------------------------------------------------------|

|-444444-888888-444444-888888-444444-888888-99999999999999-----|

|-444444-888888-444444-888888-444444-888888-99999999999999-----|

|-444444-888888-444444-888888-444444-888888-99999999999999-----|

GUITAR 1 Pre Verse - 4x GUITARS 1 AND 2 Verse - 2x

|----------------------------|--------------------------------------------------------------------------------|

|----------------------------|--------------------------------------------------------------------------------|

|----------------------------|--------------------------------------------------------------------------------|

|-000-9-9-000-9-9-000-9------|-00-8-8-00-8-8-00-8-00-8-8-00-8-8-00-8-00-9-9-00-9-9-00-9-00-9-9-00-9-9-00-9----|

|-000-9-9-000-9-9-000-9------|-00-8-8-00-8-8-00-8-00-8-8-00-8-8-00-8-00-9-9-00-9-9-00-9-00-9-9-00-9-9-00-9----|

|-000-9-9-000-9-9-000-9------|-00-8-8-00-8-8-00-8-00-8-8-00-8-8-00-8-00-9-9-00-9-9-00-9-00-9-9-00-9-9-00-9----|

... ... ... .. .. .. .. .. .. .. .. .. .. .. ..

GUITAR 2 comes in somewhere in

GUITAR 1's pre verse with this

|-----------------------|

|-------------------|

|-------------------|

|-----------------------|

|-----------------------|

|-----------------------|

Pre Bridge - Both Guitars

|----------------------------------------------------------

|----------------------------------------------------------

|----------------------------------------------------------

|-000-9-9-000-9-9-000-9-000-9-9-000-9-9-000-9-0-0-0-0-0~---

|-000-9-9-000-9-9-000-9-000-9-9-000-9-9-000-9-0-0-0-0-0~---

|-000-9-9-000-9-9-000-9-000-9-9-000-9-9-000-9-0-0-0-0-0~---

... ... ... ... ... ... . . . .

Get this song at:  amazon.com sheetmusicplus.com

Share your thoughts

0 Comments found