A Day To Remember

A Day To Remember - Sinse Youve Been Gone Bass guitar tab

----------------------------------------------------------------------------

Since You’ve Been Gone – A Day To Remember (cover)

----------------------------------------------------------------------------

Tabbed By : spuddagtar

Tuning: Dropped D

the bass in some parts is actually lower than dropped d but to keep it easy i did it like this.

Intro 0.17

G|------------------------------------------------------------------------|

D|------------------------------------------------------------------------|

A|------------------------------------------------------------------------|

D|--0-0-------------------------------------------------------------------|

Verse

G|------------------------------------------------------------------------|

D|----------------------------------------------------------------------x3|

A|------------------------------------3-3-3-3--3-3-3-3--3-3-3-3--3--------|

D|-1-1-1-1--1-1-1-1--1-1-1-1--1-3-3-3------------------------------0-0-0--|

G|------------------------------------------------------------------------|

D|------------------------------------------------------------------------|

A|------------------------------------------------------------------------|

D|-1-1-1-1--1-1-1-1--1-1-1-1--3-------------------------------------------|

Chorus 0.43

G|------------------------------------------------------------------------|

D|------------------------------------------------------------------------|

A|------------------------------------------------------------------------|

D|--5-5-5--6-6-6-6--1-1-1-1-1-1-1-1-1-------- x2 -------------------------|

G|------------------------------------------------------------------------|

D|------------------------------------------------------------------------|

A|--3-3-3-----------------------------------------------------------------|

D|---------6-6-6-6--1-1-1-1-1-1-1-1-1-------------------------------------|

G|------------------------------------------------------------------------|

D|------------------------------------------------------------------------|

A|---------------------3-3-3-3--3-3-3-3-----------------------------------|

D|--3-3-3-3--3-3-3-3----------------------0-0-0-0--0-0-0-0--3-------------|

Verse 1.07

Chorus 1.32

Bridge 1.52

G|------------------------------------------------------------------------|

D|------------------------------------------------------------------------|

A|-------------------3-3-3-3--3-3-3-3-------------------------------------|

D|-6-6-6-6--6-6-6-6--------------------6-6-6-6--6-6-6-6--1-1-1-1--1-1-1-1-|

G|------------------------------------------------------------------------|

D|------------------------------------------------------------------------|

A|------------------------------------------------------------------------|

D|-6-6-6-6--6-6-6-6--------------------6-6-6-6--6-6-6-6--6-6-6-6--6-6-6-6-|

G|------------------------------------------------------------------------|

D|------------------------------------------------------------------------|

A|--------------6-6--6--6----x3-------------------------------------------|

D|--5-5-6-6--6----------------------5-5-6-6--6------1-1--1----------------|

Chorus & End 2.21

G|------------------------------------------------------------------------|

D|------------------------------------------------------------------------|

A|------------------------------------------------------------------------|

D|--5-5-5--6-6-6-6--1-1-1-1-1-1-1-1-1-------- x2 -------------------------|

G|------------------------------------------------------------------------|

D|------------------------------------------------------------------------|

A|--3-3-3-----------------------------------------------------------------|

D|---------6-6-6-6--1-1-1-1-1-1-1-1-1-------------------------------------|

G|------------------------------------------------------------------------|

D|------------------------------------------------------------------------|

A|---------------------3-3-3-3--3-3-3-3-----------------------------------|

D|--3-3-3-3--3-3-3-3------------------------------------------------------|

G|------------------------------------------------------------------------|

D|------------------------------------------------------------------------|

A|------------------------------------------------------------------------|

D|--5-666-1-111-111----5-666-1-111—--6\\5/6--------------------------------|

G|------------------------------------------------------------------------|

D|------------------------------------------------------------------------|

A|--3-3-3-----------------------------------------------------------------|

D|---------6-6-6-6--1-1-1-1--1-1-1-1-1 -----------------------------------|

2.47

G|------------------------------------------------------------------------|

D|------------------------------------------------------------------------|

A|------------------3-3-3-3--3-3-3-3— x2----------------------------------|

D|--3-3-3-3--3-3-3-3-------------------------0-0-0-0--0-0-0-0--3----1-----|

Added by tabs-database.com and our distinguished partners

Get this song at:  amazon.com sheetmusicplus.com

Share your thoughts

0 Comments found