A Day To Remember

A Day To Remember - Price We Pay guitar tab

Artist: A Day To Remember

Song: The Price We Pay

Album: For Those Who Have A Heart

Tune-age: Dropped C (low to high) CGCFAD

Website: tabs-database.com[http://www.tabs-database.com.com/]

D|----3-------| D|----3-------|

A|------3-----| A|------3-----|

F|---------7~~| F|---------7~~|

C|--0~---0-5~~| X3 C|--0~---0-5~~|

G|3~-------7~~| G|0~-------7~~|

C|------------| C|------------|

Repeat both some number of times

D|--3-----| D|--3-----|

A|--3--8~-| A|--3--8~-|

F|--0--7~~| F|--0--7~~|

C|-----5~~| x3 C|-----5~~|

G|3~---7~~| G|3~---7~~|

C|--------| C|--------|

strum at random he they start singing, 'n repeat that last bit a butt load of times ^.^Added by tabs-database.com and our distinguished partners

Get this song at:  amazon.com sheetmusicplus.com

Share your thoughts

0 Comments found