A Day To Remember

A Day To Remember - Plot To Bomb The Panhandle guitar tab

(intro)

--------------------------------------------|

--------------------------------------------|

----------5(tremelo)---------5(tremelo)-----|

-7-7-7-7----------7-7-7------------7-3------|

-7-7-7-7----------7-7-7------------7-3------|

-7-7-7-7----------7-7-7------------7-3------|

----------------------------------------|

----------------------------------------|

---------5(tremelo)--------5(tremelo)---|

-7-7-7-----------7-7-7------------------|

-7-7-7-----------7-7-7------------------|

-7-7-7-----------7-7-7------------------|

-------------------------------------------|

-------------------------------------------|

---------5(tremelo)--------5(tremelo)------|

-7-7-7-----------7-7-7-----------7-3-------| (X4)

-7-7-7-----------7-7-7-----------7-3-------|

-7-7-7-----------7-7-7-----------7-3-------|

(pre verse)

---------------------------|

---------------------------|

---------------------------|

------------------------3--|

-0-0-0-2h3--------0h3--3---|

------------2-2-2------ 3--|

(verse)

------------------------------------------|

------------------------------------------|

------------------------------------------|

-7-7-7-7-7-7--2-2-2-2-2-2--3-3-3-3-3-3----|

-7-7-7-7-7-7--2-2-2-2-2-2--3-3-3-3-3-3----|

-7-7-7-7-7-7--2-2-2-2-2-2--3-3-3-3-3-3----|

--------------------------------------------|

--------------------------------------------|

--------------------------------------------|

-7-7-7-7-7-7--5-5-5-5-5-5-3--xx-xx-xx-xx----|

-7-7-7-7-7-7--3-3-3-3-3-3-3--xx-xx-xx-xx----|

-7-7-7-7-7-7-------------- 3--xx-xx-xx-xx---|

------------------------------------------|

------------------------------------------|

------------------------------------------|

-7-7-7-7-7-7--2-2-2-2-2-2--3-3-3-3-3-3----|

-7-7-7-7-7-7--2-2-2-2-2-2--3-3-3-3-3-3----|

-7-7-7-7-7-7--2-2-2-2-2-2--3-3-3-3-3-3----|

--------------------------------|

--------------------------------|

--------------------------------|

-7-7-7-7-7-7--5-5-5-5-5-5-3~~---|

-7-7-7-7-7-7--3-3-3-3-3-3-3~~---|

-7-7-7-7-7-7-------------- 3~~--|

(pre chorus) (palm mute)

------------------------------------------------------------------------------|

------------------------------------------------------------------------------|

-xx-xx-xx-xx-xxxx-- xx-xx-xx-xx-xxxx-- xx-xx-xx-xx-xxxx--xx-xx--xx-xx-xxxx----|

-33-33-33-33-3333--77-77-77-77-7777--33-33-33-33-3333--77-77--55-55-5555------|

-33-33-33-33-3333--77-77-77-77-7777--33-33-33-33-3333--77-77--33-33-3333------|

-33-33-33-33-3333--77-77-77-77-7777--33-33-33-33-3333--77-77------------------|

------------------------------------------------------------------------------|

------------------------------------------------------------------------------|

-xx-xx-xx-xx-xxxx-- xx-xx-xx-xx-xxxx--xx-xx-xx-xx-xxxx-- xx-xx-- xx-xx-xxxx---|

-33-33-33-33-3333--77-77-77-77-7777--33-33-33-33-3333--55-55--22-22-2222------|

-33-33-33-33-3333--77-77-77-77-7777--33-33-33-33-3333--55-55--22-22-2222------|

-33-33-33-33-3333--77-77-77-77-7777--33-33-33-33-3333--55-55--22-22-2222------|

--------|

--------|

--------|

-3~~-3~~

-3~~-3~~

-3~~-3~~

(chorus)

-------------------------------------------------------------------------------|

-------------------------------------------------------------------------------|

-------------------------------------------------------------------------------|

-7777777777777777--3333333333333333--5555555555555555- 55555555--66666666------| (X2)

-7777777777777777--3333333333333333--3333333333333333- 55555555--66666666------|

-7777777777777777--3333333333333333---------------------55555555--66666666-----|

(before repeating intro)

-------------------|

-------------------|

-------------------|

-7~~-----------3-7-|

-7~~-----------3-7-|

-7~~-----------3-7-|

(repeat intro)

-------------------------------------------|

-------------------------------------------|

---------5(tremelo)--------5(tremelo)------|

-7-7-7-----------7-7-7-----------7-3-------| (X4)

-7-7-7-----------7-7-7-----------7-3-------|

-7-7-7-----------7-7-7-----------7-3-------|

(pre verse)

---------------------------|

---------------------------|

---------------------------|

------------------------3--|

-0-0-0-2h3--------0h3--3---|

------------2-2-2------ 3--|

(verse)

------------------------------------------|

------------------------------------------|

------------------------------------------|

-7-7-7-7-7-7--2-2-2-2-2-2--3-3-3-3-3-3----|

-7-7-7-7-7-7--2-2-2-2-2-2--3-3-3-3-3-3----|

-7-7-7-7-7-7--2-2-2-2-2-2--3-3-3-3-3-3----|

--------------------------------------------|

--------------------------------------------|

--------------------------------------------|

-7-7-7-7-7-7--5-5-5-5-5-5-3--xx-xx-xx-xx----|

-7-7-7-7-7-7--3-3-3-3-3-3-3--xx-xx-xx-xx----|

-7-7-7-7-7-7-------------- 3--xx-xx-xx-xx---|

------------------------------------------|

------------------------------------------|

------------------------------------------|

-7-7-7-7-7-7--2-2-2-2-2-2--3-3-3-3-3-3----|

-7-7-7-7-7-7--2-2-2-2-2-2--3-3-3-3-3-3----|

-7-7-7-7-7-7--2-2-2-2-2-2--3-3-3-3-3-3----|

------------------------------|

------------------------------|

------------------------------|

-7-7-7-7-7-7--5-5-5-5-5-5-3---|

-7-7-7-7-7-7--3-3-3-3-3-3-3---|

-7-7-7-7-7-7-------------- 3--|

(pre chorus)

------------------------------------------------------------------------------|

------------------------------------------------------------------------------|

-xx-xx-xx-xx-xxxx-- xx-xx-xx-xx-xxxx-- xx-xx-xx-xx-xxxx--xx-xx--xx-xx-xxxx----|

-33-33-33-33-3333--77-77-77-77-7777--33-33-33-33-3333--77-77--55-55-5555------|

-33-33-33-33-3333--77-77-77-77-7777--33-33-33-33-3333--77-77--33-33-3333------|

-33-33-33-33-3333--77-77-77-77-7777--33-33-33-33-3333--77-77------------------|

------------------------------------------------------------------------------|

------------------------------------------------------------------------------|

-xx-xx-xx-xx-xxxx-- xx-xx-xx-xx-xxxx--xx-xx-xx-xx-xxxx-- xx-xx-- xx-xx-xxxx---|

-33-33-33-33-3333--77-77-77-77-7777--33-33-33-33-3333--55-55--22-22-2222------|

-33-33-33-33-3333--77-77-77-77-7777--33-33-33-33-3333--55-55--22-22-2222------|

-33-33-33-33-3333--77-77-77-77-7777--33-33-33-33-3333--55-55--22-22-2222------|

--------|

--------|

--------|

-3~~-3~~

-3~~-3~~

-3~~-3~~

(chorus)

-------------------------------------------------------------------------------|

-------------------------------------------------------------------------------|

-------------------------------------------------------------------------------|

-7777777777777777--3333333333333333--5555555555555555--55555555--66666666------| (X2)

-7777777777777777--3333333333333333--3333333333333333--55555555--66666666------|

-7777777777777777--3333333333333333--------------------- 55555555--66666666----|

(bridge)

----------------------|

----------------------|

----------------------|

-3~~-3~~-7~~-3~~-7~~--|

-3~~-3~~-7~~-3~~-7~~--|

-3~~-3~~-7~~-3~~-7~~--|

------------------------------------|

------------------------------------|

-xxx-xxx-xxx-xxx-- xxx-xxx--xx-xx---|

-333-333-333-333--777-777--55-55----|

-333-333-333-333--777-777--55-55----|

-333-333-333-333--777-777--55-55----|

----------------------------------------|

----------------------------------------|

-xxx-xxx-xxx-xxx-- xxx-xxx---------------|

-333-333-333-333--777-777--55555555------|

-333-333-333-333--777-777--55555555------|

-333-333-333-333--777-777--55555555------|

------------------------------|

------------------------------|

------------------------------|

-7-2-3~~--7-2-3--5555555------|

-7-2-3~~--7-2-3--5555555------|

-7-2-3~~--7-2-3--5555555------|

-------|

-------|

-------|

-7-2-3-|

-7-2-3-|

-7-2-3-|

------------------------------|

------------------------------|

--------x-xx------------------|

--------3-33--------- 3-33--5-|

--------3-33--------- 3-33--5-|

-7-2-3- 3-33---7-2-3- 3-33--5-|

(outro)

-------------------------------------------|

-------------------------------------------|

---------5(tremelo)--------5(tremelo)------|

-7-7-7------------7-7-7-----------7-3------| (X4)

-7-7-7------------7-7-7-----------7-3------|

-7-7-7------------7-7-7-----------7-3------|

(end on_

---

---

---

-7-

-7-

-7-Added by tabs-database.com and our distinguished partners

Get this song at:  amazon.com sheetmusicplus.com

Share your thoughts

0 Comments found