A Day To Remember

A Day To Remember - Monument guitar tab

Band: A Day To Remember

Song: "Monument"

Album: For Those Who Have Heart

Tabbed by: Sarah M.

E-mail: webmaster at tabs-database.com.com

TUNING: DROP C![CGCFAD] (it's not standard tuning,

I just forgot to change it.)

Notes: Not the best tab out there, but I tried.

Sorry, it's confusing and messy.

e|--------------------------------------------------|

B|--------------------------------------------------|

G|-7--7--7--9--9--9--7--7--7--9--9--9--9--9--9--9---|

D|-10-10-10-10-10-10-10-10-10-10-10-10-10-10-10-10--|x2

A|--------------------------------------------------|

E|--------------------------------------------------|

e|--------------------------------------------|

B|--------------------------------------------|

G|--------------------------------------------|

D|----------3333333333333333-5555555555555555-|

A|-10-8-7-5-3333333333333333-5555555555555555-|

E|----------3333333333333333-5555555555555555-|

e|-------------------------------------------------------------------|

B|-------------------------------------------------------------------|

G|-------------------------------------------------------------------|

D|-777-10-10-10-777-9-9-9-9h10-10-10-10-1010101010-10101010-10101010-|x2

A|-777----------777------------------10-1010101010-10101010-10101010-|

E|-777----------777------------------10-1010101010-10101010-10101010-|

verse1

e|----------------------------------------------------------|-------|

B|----------------------------------------------------------|-------|

G|----------------------------------------------------------|-------|

D|----------------------------------------------------------|-------|x2

A|-333-333-33333333-333-33-33333333-777-777-77777777-777-77-|--12\\--|

E|-333-333-33333333-333-33-33333333-777-777-77777777-777-77-|--12\\--|

... ... ........ ... .. ........ ... ... ........ ... ..

e|----------------------|

B|----------------------|

G|-------9----7h9-------|

D|-10-10---10-----10-10-|gtr2 comes in with this 2nd time.

A|----------------------|

E|----------------------|

. . . . .

Chorus x2

gtr1

e|----------------------------------------------------------------------|

B|----------------------------------------------------------------------|

G|----------------------------------------------------------------------|

D|-3333333333333333-5555555555555555--777-10-10-10-777-9-9-9-9h10-10-10-|

A|-3333333333333333-5555555555555555--777----------777------------------|

E|-3333333333333333-5555555555555555--777----------777------------------|

e|----------------------------------|---------|

B|----------------------------------|---------|

G|----------------------------------|---------|

D|-10-1010101010-10101010-10101010--|----3~---|Added by tabs-database.com and our distinguished partners

Get this song at:  amazon.com sheetmusicplus.com

Share your thoughts

0 Comments found