A Day To Remember

A Day To Remember - Danger In Starting A Fire guitar tab

Artist: A Day To Remember

Song: The Danger In Starting A Fire

Album: For Those Who Have A Heart

Tune-age: Dropped C (low to high) CGCFAD

Key:

P = Palm Mute

* = Artificial Harmonic

X = Dead Note

h = Hammer On

~ = Ring Out

b = Bend

Intro.

D|-------------------------|

A|----8---8h10-----8---8h10|

F|--7------------7---------|

C|0-----0------0-----0-----| x2

G|-------------------------|

C|-------------------------|

P P P P P P

Verse:

D|-----------------------------------|--------------------------------|

A|-----------------------------------|--------------------------------|

F|-----------------------------------|--------------------------------|

C|XXX--------------------------------|--------------------------------|

G|XXX5~55~555~555~5558~88~888~888~888|0~00~000~000~0003~33~333~333~333|

C|XXX5~55~555~555~5558~88~888~888~888|0~00~000~000~0003~33~333~333~333|

D|----------------------------------|-------------------------------|

A|----------------------------------|-------------------------------|

F|----------------------------------|-------------------------------|

C|----------------------------------|-------------------------------|

G|55555~55~55~55558888~88~88~8888888|0~00~000~000~0003~33~333~33~333|

C|55555~55~55~55558888~88~88~8888888|0~00~000~000~0003~33~333~33~333|

PPP

Pre-Chorus:

D|-------------------------------------------|-----------------|-----------------|

A|-------------------------------------------|-----------------|-----------------|

F|77777777777755510~1010~101010~101010~101010|-----------------|-----------------|

C|xxxxxxxxxxxxxxxx--x-x--x-x-x--x-x-x--x-x-x-|-----------------|-----------------| (whole pre-chorus) x2

G|5555555555553338~~8-8~-8-8-8~-8-8-8~-8-8-8-|--8-7------8-7---|--8-7------8-7---|

C|-------------------------------------------|00-0-10-0-0-0-10~|00-0-10-0-0-0-10~|

Break:

D|-----------------|--------------|

A|-----------------|--------------|

F|-----------------|--------------|

C|-----------------|--------------|

G|--8-7------8-7---|--8-7-----10*b|

C|00-0-10-0-0-0-10~|00-0-10-0-----|

Break 2:

D|-----------------|

A|-----------------|

F|-----------------|

C|-----------------| x4

G|--8-7------8-7---|

C|00-0-10-0-0-0-10~|

Interlude:

D|----------|------------------|----------|----------|----------|

A|----------|------------------|----------|----------|----------|

F|----------|------------------|----------|----------|----------|

C|----------|------------------|----------|----------|----------|

G|000-0-0-00|000-0-0-00-000-000|000-0-0-00|000-0-0-00|000-0-0-00|

C|000-0-0-00|000-0-0-00-000-000|000-0-0-00|000-0-0-00|000-0-0-00|

PPP P P PP PPP P P PP PPP PPP PPP P P PP PPP P P PP PPP P P PP

D|-----------|

A|-----------|

F|-----------|

C|-----------| x5

G|000~0~0~00~|

C|000~0~0~00~|

PPP P P PP

Intro.

Verse

Pre-Chorus

/---x4------\\

D|----------|-----------|----------|-------|

A|----------|-----------|----------|-------|

F|----------|-----------|----------|10~~~~~|

C|----------|-----------|----------|8~~~~~~|

G|000-0-0-00|000~0~0~00~|000-0~0~00|8~~~~~~|

C|000-0-0-00|000~0~0~00~|000-0~0~00|8~~~~~~|

PPP P P PP PPP P P PP PPP P P PP

Outro.

D|---11--|-------------------11--|

A|---14--|-------------------14--|

F|-------|-----------------------|

C|-------|-----------------------|

G|000--00|0-000~00000~0-0-0-0--00|

C|000--00|0-000~00000~0-0-0-0--00|

PPP PP P PPP PPPPP P P P P PP

\\_________x4__________/Added by tabs-database.com and our distinguished partners

Get this song at:  amazon.com sheetmusicplus.com

Share your thoughts

0 Comments found