A Day To Remember

A Day To Remember - A Shot In The Dark guitar tab

Artist: A Day To Remeber

Song: A Shot In The Dark

Tune-age: Dropped C (low to high) CGCFAD

Band Website: tabs-database.com[http://www.tabs-database.com.com/]

Key:

X = Dead Note

~ = Ring Out

\\x/ = Wammy Down

\\ = Slide Down

P = Palm Mute

P---| = Palm mute 'til '|'

Intro:

D|-----------------|------------------|-------------------|---------|

A|-----------------|------------------|-------------------|---------|

F|-----------------|------------------|-------------------|---------|

C|-----------------|-----------------7|-------------------|---------|

G|---7-8--10XX-----|----7-8------7-8--|---7-8--10XX-------|----7-8--|

C|0~0----8----3-2-0|0~0----8~080------|0~0----8-----3-2-0-|0~0----88|

Intro. B:

D|------------------|-------------------|

A|------------------|-------------------|

F|------------------|-------------------|

C|------------------|------------------7| x4

G|---7-8--10XX------|----7-8-------7-8--|

C|0-0----8-----3-2-0|0~0----8~080-------|

Pre-Verse:

D|-----------------|

A|-----------------|

F|-----------------|

C|0~~~~------------|

G|0~~~~------0~~---|

C|0~~~~5-3-2-0~~\\0/|

P----

Verse:

D|--------------------------------------------------|

A|--------------------------------------------------|

F|--------------------------------------------------|

C|--------------------------------------------------| X2

G|0~0-000-000-000-000-000-78-8\\000-000-000-3333-7777|

C|0~0-000-000-000-000-000------000-000-000-3333-7777|

P------------------| P-------------------|

D|--------------------------------------|------------------------------|

A|--------------------------------------|------------------------------|

F|--------------------------------------|------------------------------|

C|--------------------------------------|------------------------------|

G|0~000000000000-78-8\\00000000-3333-7777|0~000000000000-78-8\\0000-33-77|

C|0~000000000000------00000000-3333-7777|0~000000000000------0000-33-77|

P----------- P----------------- P----------- P---

Chorus:

D|--------------------------------------------------|

A|--------------------------------------------------|

F|10-10-10-10-10-10-10-10-10-10-10-10-10-12-12-10-10|

C|x--x--x--x--x--x--x--x--x--x--x--x--x--x--x--x--x-| x5

G|8--8--8--8--8--8--8--8--8--8--8--8--8--10-10-8--8-|

C|--------------------------------------------------|

Pre-Verse 2:

D|------------------|-------------------|------------------|------------|

A|------------------|-------------------|------------------|------------|

F|------------------|-------------------|------------------|------------|

C|------------------|------------------7|------------------|------------|

G|---7-8--10XX------|----7-8-------7-8--|---7-8--10XX------|----7-8-10*b|

C|0-0----8-----2-3-0|0-0----8~080-------|0-0----8-----2-3-0|0-0----8----|

Verse:

D|--------------------------------------------------|

A|--------------------------------------------------|

F|--------------------------------------------------|

C|--------------------------------------------------| X2

G|0~0-000-000-000-000-000-78-8\\000-000-000-3333-7777|

C|0~0-000-000-000-000-000------000-000-000-3333-7777|

P------------------ P--------------------

D|--------------------------------------|----------------------------------|

A|--------------------------------------|----------------------------------|

F|--------------------------------------|----------------------------------|

C|--------------------------------------|----------------------------------|

G|0~000000000000-78-8\\00000000-3333-7777|0~000000000000-78-8\\0000-3333-7777|

C|0~000000000000------00000000-3333-7777|0~000000000000------0000-3333-7777|

P----------- P----------------- P----------- P-------------

Interlude:

D|---------------|

A|---------------|

F|---------------|

C|0~~~~~~~~------|

G|0~~~~~~~~3/12\\3|

C|0~~~~~~~~3/12\\3|

D|----------------|

A|----------------|

F|----------------|

C|----------------| x4

G|0-0-00000-000000|

C|0-0-00000-000000|

P---------------

D|------------------|

A|------------------|

F|------------------|

C|------------------| x3

G|0~0~00000~000000~~|

C|0~0~00000~000000~~|

P-----------------

D|---------------------|

A|---------------------|

F|---------------------|

C|---------------------|

G|0~0~00000~000000-----|

C|0~0~00000~000000-3035|

P--------------------

Chorus:

D|--------------------------------------------------|

A|--------------------------------------------------|

F|10-10-10-10-10-10-10-10-10-10-10-10-10-12-12-10-10|

C|x--x--x--x--x--x--x--x--x--x--x--x--x--x--x--x--x-| x8

G|8--8--8--8--8--8--8--8--8--8--8--8--8--10-10-8--8-|

C|--------------------------------------------------|

Outro:

D|-----------------|-----------------|

A|-----------------|-----------------|

F|-----------------|-----------------|

C|0~~~~~~~~~~~~~~~~|-----0~~~~~~~~~~0|

G|0~~~~~~~~~~~~~~~~|12\\\\-0~~~~~~~~~~0|

C|0~~~~~~~~~~~~~~~~|12\\\\-0~~~~~~~~~~0|

D|------------------|------------------|------------------|--------------------|

A|------------------|------------------|------------------|--------------------|

F|------------------|------------------|------------------|--------------------|

C|------------------|------------------|------------------|--------------------|

G|000000000--00~00~0|000000000--0000000|000000000--00~00~0|000000000--0000001~~|

C|000000000--00~00~0|000000000--0000000|000000000--00~00~0|000000000--0000001~~|

P----------------------------------------------------------------------------|

D|-------------------|-------------------|-------------------|------------------|

A|-------------------|-------------------|-------------------|------------------|

F|-------------------|-------------------|-------------------|------------------|

C|-------------------|-------------------|-------------------|------------------|

G|000000000~~00~00~0~|000000000~~0000000~|000000000~~00~00~0~|000000000~~00-00~0|

C|000000000~~00~00~0~|000000000~~0000000~|000000000~~00~00~0~|000000000~~00-00~0|

P-----------------------------------------------------------------------------|Added by tabs-database.com and our distinguished partners

Get this song at:  amazon.com sheetmusicplus.com

Share your thoughts

0 Comments found