A Day To Remember

A Day To Remember - 1958 guitar tab

Artist: A Day To Remember

Song: 1958

Album: And There Name Was Treason

Tuning: Dropped C

Intro.

|-----| |-------------------------------------------------------|

|-----| |-------------------------------------------------------|

|-----| |-------------------------------------------------------|

|0~~~~| |-------------------------------------------------------| x5

|0~~~~| |----3-3h5-----3-3h5-----6p5-----3-3h5-----1p0-3p0-1p0--|

|0~~~~| |0-0-------0-0-------0-0-----0-0-------0-0-------------3|

|---------------------------------------| |-----------------------------|

|---------------------------------------| |-----------------------------|

|---------------------------------------| |-----------------------------|

|---------------------------------------| |-----------------------------| x4

|----3-3h5-----3-3h5-----6p5-8-7-5-7-5-3| |0-------8------10------7-----|

|0-0-------0-0-------0-0----------------| |0-(x16)-8-(x8)-10-(x4)-7-(x4)|

|------------------------------------|

|------------------------------------|

|------------------------------------|

|8-------10------7------5------3-----|

|8-(x16)-10-(x8)-7-(x4)-5-(x2)-3-(x2)|

|8-------10------7------5------3-----|

/-Let Ring--\\

|-------------------------------------------------------------------|

|---------------------------------------------------------14----14--|

|-------------------------------------------------------17--1717--17|

|-------------------------------------------------------------------|

|000000000~~~~000000000~~~~~000000000~~~~~000000000~~~~~------------|

|000000000~~~~000000000~~~~~000000000~~~~~000000000~~~~~------------|

/-Let Ring--\\

|--------------------------------------------------|

|----------------------------------------14----14--|

|--------------------------------------17--1717--17|

|--------------------------------------------------|

|000000000~~~~0~0~0~0~0~0~000000000~~~~------------|

|000000000~~~~0~0~0~0~0~0~000000000~~~~------------|

|-------------------------------------------------|

|-------------------------------------------------|

|-------------------------------------------------|

|-------------------------------------------------|

|000000000~~~~0~0~0~0~0~0~000000000~~~~8-7-5-7-5-3|

|000000000~~~~0~0~0~0~0~0~000000000~~~~-----------|

|-------------------------------------------------|

|-------------------------------------------------|

|-------------------------------------------------|

|8------10------7---------------------------------| x3

|8-(x8)-10-(x4)-7-(x4)-000000000~~~~~0-8-7-5-7-5-3|

|8------10------7------000000000~~~~~0------------|

|------------------------------------------------------------------------|

|------------------------------------------------------------------------|

|------------------------------------------------------------------------|

|8------10------7--------------------------------------------------------|

|8-(x8)-10-(x4)-7-(x4)-000000000~~~~0~0~0~0~0~0~000000000~~~~0~0~0~0~0~0~|

|8------10------7------000000000~~~~0~0~0~0~0~0~000000000~~~~0~0~0~0~0~0~|

|-----|

|-----|

|-----|

|0~~~~|

|0~~~~|

|0~~~~|

|-----------------------------| |------------------------------------|

|-----------------------------| |------------------------------------|

|-----------------------------| |------------------------------------|

|-----------------------------| x4 |8-------10------7------5------3-----|

|0-------8------10------7-----| |8-(x16)-10-(x8)-7-(x4)-5-(x2)-3-(x2)|

|0-(x16)-8-(x8)-10-(x4)-7-(x4)| |8-------10------7------5------3-----|

/-Let Ring--\\

|-------------------------------------------------------------------|

|---------------------------------------------------------14----14--|

|-------------------------------------------------------17--1717--17|

|-------------------------------------------------------------------|

|000000000~~~~000000000~~~~~000000000~~~~~000000000~~~~~------------|

|000000000~~~~000000000~~~~~000000000~~~~~000000000~~~~~------------|

/-Let Ring--\\

|--------------------------------------------------|

|----------------------------------------14----14--|

|--------------------------------------17--1717--17|

|--------------------------------------------------|

|000000000~~~~0~0~0~0~0~0~000000000~~~~------------|

|000000000~~~~0~0~0~0~0~0~000000000~~~~------------|

|-------------------------------------------------|

|-------------------------------------------------|

|-------------------------------------------------|

|-------------------------------------------------|

|000000000~~~~0~0~0~0~0~0~000000000~~~~8-7-5-7-5-3|

|000000000~~~~0~0~0~0~0~0~000000000~~~~-----------|

|-------------------------------------------------|

|-------------------------------------------------|

|-------------------------------------------------|

|8------10------7---------------------------------| x3

|8-(x8)-10-(x4)-7-(x4)-000000000~~~~~0-8-7-5-7-5-3|

|8------10------7------000000000~~~~~0------------|

|------------------------------------------------------------------------|

|------------------------------------------------------------------------|

|------------------------------------------------------------------------|

|8------10------7--------------------------------------------------------|

|8-(x8)-10-(x4)-7-(x4)-000000000~~~~0~0~0~0~0~0~000000000~~~~0~0~0~0~0~0~|

|8------10------7------000000000~~~~0~0~0~0~0~0~000000000~~~~0~0~0~0~0~0~|

|-----|

|-----|

|-----|

|0~~~~|

|0~~~~|

|0~~~~|

End.

|-----------------------------------| |------------|

|-----------------------------------| |------------|

|-----------------------------------| |------------|

|7------10------3------5------6-----| x8 |0~~~0~~~~~~~|

|5-(x8)-8--(x8)-1-(x8)-3-(x4)-4-(x4)| |0~~~0~~~~~~~|

|-----------------------------------| |0~~~0~~~~~~~|Added by tabs-database.com and our distinguished partners

Get this song at:  amazon.com sheetmusicplus.com

Share your thoughts

0 Comments found