A Day Late

A Day Late - Whitney And Brittany guitar tab

-------------------------------------------------------------------------------

WHITNEY AND BRITTANY - A Day Late

-------------------------------------------------------------------------------

By: Andy (the guitar player)

Intro Part 1 (Acoustic)

e|---------------------------------------------------------------------------|

B|-------------3----3--------------------------------------------------------|

G|---0----0---0-0--0-0-------------------------------------------------------|

D|--2-2--2-2-0----0----------------------------------------------------------|

A|-3----3--------------------------------------------------------------------|

E|---------------------------------------------------------------------------|

Intro Part 2

e|---------------------------------------------------------------------------|

B|---------------------------------------------------------------------------|

G|---------------------------------------------------------------------------|

D|-----66-777-9-9------------------------------------------------------------|

A|-7-7-44-555-7-7------------------------------------------------------------|

E|-5-5-----------------------------------------------------------------------|

Verse (Palm Mute)/Chorus

e|---------------------------------------------------------------------------|

B|---------------------------------------------------------------------------|

G|---------------------------------------------------------------------------|

D|-----------------6-6-6-6-6-6-6-6-7-7-7-7-7-7-7-7-9-9-9-9-9-9-9-9-----------|

A|-7-7-7-7-7-7-7-7-4-4-4-4-4-4-4-4-5-5-5-5-5-5-5-5-7-7-7-7-7-7-7-7-----------|

E|-5-5-5-5-5-5-5-5-----------------------------------------------------------|

Outro

e|---------------------------------------------------------------------------|

B|---------------------------------------------------------------------------|

G|---------------------------------------------------------------------------|

D|-7-7-7-7-7-7-7-7--9-9-9-9-9-9-9-9------------------------------------------|

A|-5-5-5-5-5-5-5-5--7-7-7-7-7-7-7-7------------------------------------------|

E|---------------------------------------------------------------------------|

===============================================================================

Get this song at:  amazon.com sheetmusicplus.com

Share your thoughts

0 Comments found