A Day Late

A Day Late - (Twenty) Third Times The Charm guitar tab

-------------------------------------------------------------------------------

(TWENTY) THIRD TIME IS A CHARM - A Day Late

-------------------------------------------------------------------------------

By: Andy e-mail: Kdog881235@aol.com or Surf9876@yahoo.com

Intro (clean) 16x

e|---------------------------------------------------------------------------|

B|------------2--------------------------------------------------------------|

G|-----2---------------------------------------------------------------------|

D|---------------------------------------------------------------------------|

A|-0-0----0-0----------------------------------------------------------------|

E|---------------------------------------------------------------------------|

Intro Part 2 1x

e|-2-2-2-2-2-2-2-2-----------------------------------------------------------|

B|-3-3-3-3-3-3-3-3-----------------------------------------------------------|

G|-2-2-2-2-2-2-2-2--2-2-2-2-2-2-2-2--4-4-4-4-4-4-4-4--7-7-7-7-7-7-7-7--------|

D|-0-0-0-0-0-0-0-0--2-2-2-2-2-2-2-2--4-4-4-4-4-4-4-4--7-7-7-7-7-7-7-7--------|

A|------------------0-0-0-0-0-0-0-0--2-2-2-2-2-2-2-2--5-5-5-5-4-4-4-4--------|

E|---------------------------------------------------------------------------|

Verse 4x

e|---------------------------------------------------------------------------|

B|---------------------------------------------------------------------------|

G|---------------------------------------------------------------------------|

D|-----------------------------------7-7-7-7--7-7-7-7------------------------|

A|-7-7-7-7-7-7-7-7--9-9-9-9-9-9-9-9--5-5-5-5--4-4-4-4------------------------|

E|-5-5-5-5-5-5-5-5--7-7-7-7-7-7-7-7------------------------------------------|

PM . . . . . . . . . . . . . . . .

Chorus 2x

e|---------------------------------------------------------------------------|

B|---------------------------------------------------------------------------|

G|---------------------------------------------------------------------------|

D|------------------9-9-9-9-9-9-9-9-11-11-11-11-11-11-11-11--7-7-7-7-7-7-7-7-|

A|-7-7-7-7-7-7-7-7--7-7-7-7-7-7-7-7--9--9--9--9--9--9--9--9--5-5-5-5-5-5-5-5-|

E|-5-5-5-5-5-5-5-5-----------------------------------------------------------|

===============================================================================

Get this song at:  amazon.com sheetmusicplus.com

Share your thoughts

0 Comments found