A Day Late

A Day Late - The One For Me guitar tab

-------------------------------------------------------------------------------

THE ONE FOR ME - A Day Late

-------------------------------------------------------------------------------

By: Andy (the guitar player)

Acoustic Intro/Electric Verse

e|---------------------------------------------------------------------------|

B|---------------------------------------------------------------------------|

G|---------------------------------------------------------------------------|

D|-5-5-5-5-5-5-5-5-----------------------------------------------------------|

A|-3-3-3-3-3-3-3-3-3-3-3-3-3-3-3-3-7-7-7-7-7-7-7-7-5-5-5-5-5-5-5-5-----------|

E|-----------------1-1-1-1-1-1-1-1-5-5-5-5-5-5-5-5-3-3-3-3-3-3-3-3-----------|

Interlude

e|---------------------------------------------------------------------------|

B|---------------------------------------------------------------------------|

G|--5----5--5----5--5----5--7----7-------------------------------------------|

D|-----------------3--3-3--5--5-5--------------------------------------------|

A|-3--3-3--5--5-5------------------------------------------------------------|

E|---------------------------------------------------------------------------|

Chorus

e|---------------------------------------------------------------------------|

B|---------------------------------------------------------------------------|

G|---------------------------------------------------------------------------|

D|-5-5-5-5-5-5-5-5-----------------------------------------------------------|

A|-3-3-3-3-3-3-3-3-5-5-5-5-5-5-5-5-3-3-3-3-3-3-3-3-7-7-7-7-7-7-7-7-----------|

E|-----------------3-3-3-3-3-3-3-3-1-1-1-1-1-1-1-1-5-5-5-5-5-5-5-5-----------|

Verse 2

e|---------------------------------------------------------------------------|

B|---------------------------------------------------------------------------|

G|---------------------------------------------------------------------------|

D|-5-5-5-5-5-5---------------------------------------------------------------|

A|-3-3-3-3-3-3--3-3-3-3-3-3--5-5-5-5-5-5--7-7-7-7-7-7------------------------|

E|--------------1-1-1-1-1-1--3-3-3-3-3-3--5-5-5-5-5-5------------------------|

PM . . . . . . . . . . . . . . . .

===============================================================================

Get this song at:  amazon.com sheetmusicplus.com

Share your thoughts

0 Comments found