A Day Late

A Day Late - She Said guitar tab

-------------------------------------------------------------------------------

SHE SAID - A Day Late

-------------------------------------------------------------------------------

By: Andy

Intro Part 1

e|---------------------------------------------------------------------------|

B|---------------------------------------------------------------------------|

G|-5-5-5-5-5-5-5-5-----------------------------------------------------------|

D|-3-3-3-3-3-3-3-3-5-5-5-5-5-5-5-5-7-7-7-7-7-7-7-7-3-3-3-3-3-3-3-3-----------|

A|-----------------3-3-3-3-3-3-3-3-5-5-5-5-5-5-5-5-1-1-1-1-1-1-1-1-----------|

E|---------------------------------------------------------------------------|

Intro Part 2

e|---------------------------------------------------------------------------|

B|---------------------------------------------------------------------------|

G|-5-5-5-5-5-3-2-0---------5-3-2-0---------5-3-2-0---------5-3-2-0-----------|

D|-3-3-3-3---------5-5-5-5---------7-7-7-7---------3-3-3-3-------------------|

A|-----------------3-3-3-3---------5-5-5-5---------1-1-1-1-------------------|

E|---------------------------------------------------------------------------|

Intro Part 3

e|---------------------------------------------------------------------------|

B|---------------------------------------------------------------------------|

G|-5-5-5-5-5-3-2-0---------5-3-2-0---------5-3-2-0----------0-2-3------------|

D|-3-3-3-3---------5-5-5-5---------7-7-7-7---------3-3-3-3-3-----------------|

A|-----------------3-3-3-3---------5-5-5-5---------1-1-1-1-------------------|

E|---------------------------------------------------------------------------|

Verse

e|---------------------------------------------------------------------------|

B|---------------------------------------------------------------------------|

G|-5-5-5-5-5-5-5-5-----------------------------------------------------------|

D|-3-3-3-3-3-3-3-3-5-5-5-5-5-5-5-5-7-7-7-7-7-7-7-7-3-3-3-3-3-3-3-3-----------|

A|-----------------3-3-3-3-3-3-3-3-5-5-5-5-5-5-5-5-1-1-1-1-1-1-1-1-----------|

E|---------------------------------------------------------------------------|

Pre-chorus

e|---------------------------------------------------------------------------|

B|---------------------------------------------------------------------------|

G|---------------------------------------------------------------------------|

D|-----------------5-5-5-5-5-5-5-5-7-7-7-7-7-7-7-7-3-3-3-3-3-3-3-3-----------|

A|-3-3-3-3-3-3-3-3-3-3-3-3-3-3-3-3-5-5-5-5-5-5-5-5-1-1-1-1-1-1-1-1-----------|

E|-1-1-1-1-1-1-1-1-----------------------------------------------------------|

PM . . . . . . . . . . . . . . . . . . . . . . . . . . . .

Chorus

e|---------------------------------------------------------------------------|

B|---------------------------------------------------------------------------|

G|---------------------------------------------------------------------------|

D|-----------------5-5-5-5-5-5-5-5-7-7-7-7-7-7-7-7-3-3-3-3-3-3-3-3-----------|

A|-3-3-3-3-3-3-3-3-3-3-3-3-3-3-3-3-5-5-5-5-5-5-5-5-1-1-1-1-1-1-1-1-----------|

E|-1-1-1-1-1-1-1-1-----------------------------------------------------------|

Solo/Outro

e|-1-1--3-3--1-1--0-0--1-1--3-3--1-1--0-0---1--------------------------------|

B|--1-1--1-1--1-1--1-1--1-1--1-1--1-1--1-1--1--------------------------------|

G|---------------------------------------------------------------------------|

D|---------------------------------------------------------------------------|

A|---------------------------------------------------------------------------|

E|---------------------------------------------------------------------------|

===============================================================================

Get this song at:  amazon.com sheetmusicplus.com

Share your thoughts

0 Comments found