A Day Late

A Day Late - Moss Always Grows On The North Side Of Trees guitar tab

-------------------------------------------------------------------------------

MOSS ALWAYS GROWS...-A Day Late

-------------------------------------------------------------------------------

By: Andy (the guitar player)

Intro

e|---------------------------------------------------------------------------|

B|---------------------------------------------------------------------------|

G|---------------------------------------------------------------------------|

D|--7-7-7-7--5-5-5-5--4-4-4-4--5-5-5-5---------------------------------------|

A|-5-5-5-5--5-5-5-5--5-5-5-5--5-5-5-5----------------------------------------|

E|---------------------------------------------------------------------------|

Chorus

e|---------------------------------------------------------------------------|

B|---------------------------------------------------------------------------|

G|---------------------------------------------------------------------------|

D|-7-7-7-7-7-7-7-7-7-7-7-7-7-7-7-7-4-4-4-4-4-4-4-4-2-2-2-2-2-2-2-2-----------|

A|-5-5-5-5-5-5-5-5-4-4-4-4-4-4-4-4-2-2-2-2-2-2-2-2-0-0-0-0-0-0-0-0-----------|

E|---------------------------------------------------------------------------|

Verse

e|---------------------------------------------------------------------------|

B|---------------------------------------------------------------------------|

G|---------------------------------------------------------------------------|

D|--7--7--7--7--7--7--7--7--4--4--4--4--2--4--2--4---------------------------|

A|-5--5--5--5--4--4--4--4--2--2--2--2--0--0--0--0----------------------------|

E|---------------------------------------------------------------------------|

Pm . . . . . . . . . . . . . . . .

===============================================================================

Get this song at:  amazon.com sheetmusicplus.com

Share your thoughts

0 Comments found