A Day Late

A Day Late - Melissa guitar tab

-------------------------------------------------------------------------------

MELISSA - A Day Late

-------------------------------------------------------------------------------

By: Andy (the guitar player)

Intro

e|---------------------------------------------------------------------------|

B|---------------------------------------------------------------------------|

G|---------------------------------------------------------------------------|

D|-9-9-9-9-6-6---------------------6-6-6-6-3-3-------------------------------|

A|-7-7-7-7-----7-7-9-9-9-9-6-6-----4-4-4-4-----4-4-6-6-6-6-7-7-7-7-----------|

E|-----------------7-7-7-7-----7-7-----------------4-4-4-4-5-5-5-5-----------|

Verse

e|---------------------------------------------------------------------------|

B|---------------------------------------------------------------------------|

G|---------------------------------------------------------------------------|

D|-9-9-9-9-9-9-9-9-----------------6-6-6-6-6-6-6-6---------------------------|

A|-7-7-7-7-7-7-7-7-9-9-9-9-9-9-9-9-4-4-4-4-4-4-4-4-6-6-6-7-7-7---------------|

E|-----------------7-7-7-7-7-7-7-7-----------------4-4-4-5-5-5---------------|

PM................................................... ...

Pre-Chorus (let ring)

e|---------------------------------------------------------------------------|

B|---------------------------------------------------------------------------|

G|---------------------------------------------------------------------------|

D|-9-------------------------------6-----------------------------------------|

A|-7---------------9---------------4----------------7------------------------|

E|-----------------7--------------------------------5------------------------|

Chorus

e|---------------------------------------------------------------------------|

B|---------------------------------------------------------------------------|

G|---------------------------------------------------------------------------|

D|-9-9-9-9-9-9-9-9-----------------------------------------------------------|

A|-7-7-7-7-7-7-7-7-9-9-9-9-9-9-9-9-7-7-7-7-7-7-7-7-9-9-9-9-9-9-9-9-----------|

E|-----------------7-7-7-7-7-7-7-7-5-5-5-5-5-5-5-5-7-7-7-7-7-7-7-7-----------|

Interlude Part 1

e|---------------------------------------------------------------------------|

B|---------------------------------------------------------------------------|

G|---------------------------------------------------------------------------|

D|-9-9-9-9-6-----------6-7-6-6-6-6-6-----------6-7---------------------------|

A|-7-7-7-7---7-9-9-9-9-----4-4-4-4---7-7-7-7-7-------------------------------|

E|-------------7-7-7-7-----------------5-5-5-5-------------------------------|

Interlude Part 2

e|---------------------------------------------------------------------------|

B|---------------------------------------------------------------------------|

G|---------------------------------------------------------------------------|

D|-9-9-9-9-6-7-9---------6-7-9-7-6-6-6-6-6-7-9---------6-7-9-7---------------|

A|-7-7-7-7-------9-9-9-9---------4-4-4-4-------7-7-7-7-----------------------|

E|---------------7-7-7-7-----------------------5-5-5-5-----------------------|

Interlude Part 3

e|---------------------------------------------------------------------------|

B|---------------------------------------------------------------------------|

G|---------------------------------------------------------------------------|

D|-6-7-9-7-9-11-12-11-9-7----------------------------------------------------|

A|---------------------------------------------------------------------------|

E|---------------------------------------------------------------------------|

Just mess around with this.

===============================================================================

Get this song at:  amazon.com sheetmusicplus.com

Share your thoughts

0 Comments found