A Day Late

A Day Late - Loss Of Words guitar tab

-------------------------------------------------------------------------------

LOSS OF WORDS - A Day Late

-------------------------------------------------------------------------------

Intro

e|---------------------------------------------------------------------------|

B|---------------------------------------------------------------------------|

G|---------------------------------------------------------------------------|

D|-6-6-66--------------------------------------------------------------------|

A|-4-4-44-6-66-6-4-4-3-3-4-4-3-3---------------------------------------------|

E|--------4-44-4-2-2-1-1-2-2-1-1---------------------------------------------|

Verse

e|---------------------------------------------------------------------------|

B|---------------------------------------------------------------------------|

G|---------------------------------------------------------------------------|

D|---6---6----3---3----------------------------------------------------------|

A|-4---4----1---1------4---4----6---6----------------------------------------|

E|-------------------2---2----4---4------------------------------------------|

PM . . . . . . . .

Chorus

e|---------------------------------------------------------------------------|

B|---------------------------------------------------------------------------|

G|---------------------------------------------------------------------------|

D|-6-6-6-6-6-6-6-6-----------------------------------------------------------|

A|-4-4-4-4-4-4-4-4-6-6-6-6-6-6-6-6-8-8-8-8-8-8-8-8-4-4-4-4-4-4-4-4-----------|

E|-----------------4-4-4-4-4-4-4-4-6-6-6-6-6-6-6-6-2-2-2-2-2-2-2-2-----------|

===============================================================================

Get this song at:  amazon.com sheetmusicplus.com

Share your thoughts

0 Comments found