A Day Late

A Day Late - I Wish You The Worst guitar tab

ok this is just rhythm and the solo

. = Palm Mute

::INTRO::

figure out number of struming

e|---------------------------------------------------------------------------|

B|---------------------------------------------------------------------------|

G|6--------------------------------------------------------------------------|

D|6-6/8/6-4-6----------------------------------------------------------------|

A|4-6/8/6-4-6----------------------------------------------------------------|

E|--4/6/4-2-4----------------------------------------------------------------|

::VERSE::

e|---------------------------------------------------------------------------|

B|---------------------------------------------------------------------------|

G|-6-------------------------------------------------------------------------|

D|-6-6-8-6-------------------------------------------------------------------|

A|-4-6-8-6-------------------------------------------------------------------|

E|---4-6-4-------------------------------------------------------------------|

::CHORUS:: Second time end with this

e|-----------------------------------|---------------------------------------|

B|-----------------------------------|---------------------------------------|

G|---6-------------------------------|---------6-----------------------------|

D|-4-6-6-8-6-------------------------|-4-6-6-6-6-----------------------------|

A|-4-4-6-8-6-------------------------|-4-6-6-6-4-----------------------------|

E|-2---4-6-4-------------------------|-2-4-4-4-------------------------------|

...

::SOLO::

e|---------------------------------------------------------------------------|

B|-|-(x2)---|-------------------------------|-------(x2)--------|------------|

G|---------------------------------------------------------------------------|

D|--6-4-3------------------------------------4-3-4-3---4-3-4-3---------------|

A|-4-----4-6--4-4-8-6-4-3-4-6-8-6-4-4-3-4-3-4---4---4-4---4---4-6------------|

E|-------------4-----------------------4---4---------------------------------|

::BRIDGE::

e|------------------|----------|-------------------|-------------------------|

B|------------------|----------|-------------------|-------------------------|

G|-6-6/5-----6/5----|--6-------|----xx6------------|-------------------------|

D|-6-6/5-6-8-6/5-6--|--6-6-8-6-|xx4-xx6-xx6-xx8-xx6|4-6----------------------|

A|-4-4/3-6-8-4/3-6--|--4-6-8-6-|xx4-xx4-xx6-xx8-xx6|4-6----------------------|

E|-------4-6-----4--|----4-6-4-|xx2-----xx6-xx6-xx4|4-4----------------------|

...

End With Chorus

Tabbed By Billy N for questions email me at wrnorth@cox.net

Get this song at:  amazon.com sheetmusicplus.com

Share your thoughts

0 Comments found