A Day Late

A Day Late - I Wanna Be The Terminator guitar tab

-------------------------------------------------------------------------------

I WANNA BE THE TERMINATOR - A Day Late

-------------------------------------------------------------------------------

By: Andy

Intro Guitar 2

e|---------------------------------------------------------------------------|

B|---------------------------------------------------------------------------|

G|---------------------------------------------------------------------------|

D|-9-9-9-9-9-9-9-9-----------------6-6-6-6-6-6-6-6---------------------------|

A|-7-7-7-7-7-7-7-7-9-9-9-9-9-9-9-9-4-4-4-4-4-4-4-4-6-6-6-6-6-6-6-6-----------|

E|-----------------7-7-7-7-7-7-7-7-----------------4-4-4-4-4-4-4-4-----------|

Intro Guitar 1

e|-0-0-0-0-0-0--0---0-0-0-0-0-0--0-------------------------------------------|

B|-5-5-5-4-4-4--5---5-5-5-7-7-7--5-------------------------------------------|

G|---------------------------------------------------------------------------|

D|---------------------------------------------------------------------------|

A|---------------------------------------------------------------------------|

E|---------------------------------------------------------------------------|

Verse

e|---------------------------------------------------------------------------|

B|---------------------------------------------------------------------------|

G|---------------------------------------------------------------------------|

D|-----------------4-4-4-4-4-4-4-4-6-6-6-6-6-6-6-6---------------------------|

A|-2-2-2-2-2-2-2-2-2-2-2-2-2-2-2-2-4-4-4-4-4-4-4-4-6-6-6-6-6-6-6-6-----------|

E|-0-0-0-0-0-0-0-0---------------------------------4-4-4-4-4-4-4-4-----------|

PM . . . . . . . . . . . . . . . . . . . . . . . . . . . . . . . .

Chorus

e|---------------------------------------------------------------------------|

B|---------------------------------------------------------------------------|

G|---------------------------------------------------------------------------|

D|-4-4-4-4-4-4-4-4-----------------6-6-6-6-6-6-6-6---------------------------|

A|-2-2-2-2-2-2-2-2-6-6-6-6-6-6-6-6-4-4-4-4-4-4-4-4-4-4-4-4-4-4-4-4-----------|

E|-----------------4-4-4-4-4-4-4-4-----------------2-2-2-2-2-2-2-2-----------|

===============================================================================

Get this song at:  amazon.com sheetmusicplus.com

Share your thoughts

0 Comments found