A Day Late

A Day Late - Going Out guitar tab

-------------------------------------------------------------------------------

GOING OUT - A Day Late

-------------------------------------------------------------------------------

By: Andy (the guitar player)

Intro Part 1

e|---------------------------------------------------------------------------|

B|---------------------------------------------------------------------------|

G|---------------------------------------------------------------------------|

D|---------------------------------------------------------------------------|

A|-7-------9--------5-5--5-5--5-5--5-5---------------------------------------|

E|-5-------7--------3-3--3-3--3-3--3-3---------------------------------------|

Intro Part 2

e|---------------------------------------------------------------------------|

B|---------------------------------------------------------------------------|

G|---------------------------------------------------------------------------|

D|-7-7-5-4-5--------------9-7-6-7--5-5-4-2-4-0-------------------------------|

A|-5---------7-7-5-4-5--9----------3-----------------------------------------|

E|-----------5----------7----------------------------------------------------|

Intro Part 3

e|---------------------------------------------------------------------------|

B|---------------------------------------------------------------------------|

G|---------------------------------------------------------------------------|

D|-7-7-5-4-5--------------9-7-6-7--5-5-5-5-5-4-2-----------------------------|

A|-5---------7-7-5-4-5--9----------3-3-3-3-----------------------------------|

E|-----------5----------7----------------------------------------------------|

Intro Part 4

e|---------------------------------------------------------------------------|

B|---------------------------------------------------------------------------|

G|-77777777-99999999-11-11-11-11-11-11-11-11-12-12-12-12-12-12-12-12---------|

D|---------------------------------------------------------------------------|

A|---------------------------------------------------------------------------|

E|---------------------------------------------------------------------------|

Intro Part 5

e|---------------------------------------------------------------------------|

B|---------------------------------------------------------------------------|

G|-7777-9-7--9999-11-9--11-11-11-11-12-11--12-12-12-12-11-9-7----------------|

D|---------------------------------------------------------------------------|

A|---------------------------------------------------------------------------|

E|---------------------------------------------------------------------------|

Verse

e|---------------------------------------------------------------------------|

B|---------------------------------------------------------------------------|

G|---------------------------------------------------------------------------|

D|-7-7-7-7-------------------------------------------------------------------|

A|-5-5-5-5-7-7-7-7-9-9-9-9-5-5-5-5-------------------------------------------|

E|---------5-5-5-5-7-7-7-7-3-3-3-3-------------------------------------------|

Chorus

e|---------------------------------------------------------------------------|

B|---------------------------------------------------------------------------|

G|---------------------------------------------------------------------------|

D|-7-7-7-7-7-7-7-7---------------------------------12-12-12-12-12-12-12-12---|

A|-5-5-5-5-5-5-5-5-7-7-7-7-7-7-7-7-9-9-9-9-9-9-9-9-10-10-10-10-10-10-10-10---|

E|-----------------5-5-5-5-5-5-5-5-7-7-7-7-7-7-7-7---------------------------|

===============================================================================

Get this song at:  amazon.com sheetmusicplus.com

Share your thoughts

0 Comments found