A Day Late

A Day Late - Girlfriends Suck guitar tab

-------------------------------------------------------------------------------

GIRLFRIENDS SUCK - A Day Late

-------------------------------------------------------------------------------

By: Andy (the guitar player)

Intro/Verse

e|---------------------------------------------------------------------------|

B|---------------------------------------------------------------------------|

G|---------------------------------------------------------------------------|

D|---------------------------------------------------------------------------|

A|-9-9-9-7-7-7-9-9-9-7-7-7-9-9-9-7-7-7-9-9-9-7-7-7---------------------------|

E|-7-7-7-5-5-5-7-7-7-5-5-5-7-7-7-5-5-5-7-7-7-5-5-5---------------------------|

PM. . . . . . . . . . . . . .

Chorus

e|---------------------------------------------------------------------------|

B|---------------------------------------------------------------------------|

G|---------------------------------------------------------------------------|

D|---------5-5-5-5-----------------------------------------------------------|

A|-5-5-5-5-3-3-3-3-7-7-7-7-9-9-9-9-------------------------------------------|

E|-3-3-3-3---------5-5-5-5-7-7-7-7-------------------------------------------|

Interlude/Drum Solo (let ring)

e|---------------------------------------------------------------------------|

B|---------------------------------------------------------------------------|

G|-9-------5-----------------------------------------------------------------|

D|-9-------5-------5-------7-------------------------------------------------|

A|-7-------3-------5-------7-------------------------------------------------|

E|-----------------3-------5-------------------------------------------------|

2nd Part

e|----------------------------0----------------------------------------------|

B|-----------------------------0---------------------------------------------|

G|-9------5----------------2----2--------------------------------------------|

D|-9------5--------5-------2-------------------------------------------------|

A|-7------3--------5-------0-------------------------------------------------|

E|-----------------3---------------------------------------------------------|

Last Verse

e|---------------------------------------------------------------------------|

B|---------------------------------------------------------------------------|

G|---------------------------------------------------------------------------|

D|---------------------------------------------------------------------------|

A|-9-9-9-7-7-7-9-9-9-7-7-7-9-9-9-7-7-7-9-9-9-7-7-7---------------------------|

E|-7-7-7-5-5-5-7-7-7-5-5-5-7-7-7-5-5-5-7-7-7-5-5-5---------------------------|

===============================================================================

Get this song at:  amazon.com sheetmusicplus.com

Share your thoughts

0 Comments found