A Day Late

A Day Late - For The Last Time Im Not Sean Connery guitar tab

-------------------------------------------------------------------------------

FOR THE LAST TIME... - A Day Late

-------------------------------------------------------------------------------

Intro

e|---------------------------------------------------------------------------|

B|---------------------------------------------------------------------------|

G|---9----9------9----9-----9----9-----9------9------------------------------|

D|-----9----9------9----9-----9----9-----9------9----------------------------|

A|-7----------------------0--------------------------------------------------|

E|-------------9---------------------7------9--------------------------------|

Verse (Palm Muted)

e|---------------------------------------------------------------------------|

B|---------------------------------------------------------------------------|

G|---------------------------------------------------------------------------|

D|-9-9-9-9-9-9-9-9-6-6-6-6-6-6-6-6-------------------------------------------|

A|-7-7-7-7-7-7-7-7-4-4-4-4-4-4-4-4-7-7-7-7-7-7-7-7-9-9-9-9-9-9-9-9-----------|

E|---------------------------------5-5-5-5-5-5-5-5-7-7-7-7-7-7-7-7-----------|

Chorus

e|---------------------------------------------------------------------------|

B|---------------------------------------------------------------------------|

G|---------------------------------------------------------------------------|

D|-9-9-------6-6-------9-9-------6-6-------9-9-------6-6-6-6-6-6-6-6---------|

A|-7-7--9-9--4-4--7-7--7-7--9-9--4-4--7-7--7-7--9-9--4-4-4-4-4-4-4-4-7-------|

E|------7-7-------5-5-------7-7-------5-5-------7-7------------------5-------|

===============================================================================

Get this song at:  amazon.com sheetmusicplus.com

Share your thoughts

0 Comments found