A Day Late

A Day Late - Falling Stars Broken Hearts guitar tab

-------------------------------------------------------------------------------

FALLING STARS, BROKEN HEARTS - A Day Late

-------------------------------------------------------------------------------

By: Andy (the guitar player)

Intro

e|-----3-------3--------3-------3-------3-------3-------3-------3-----3------|

B|------3-------3--------3-------3-------3-------3-------3-------3----3------|

G|-------0-------0--------0-------0-------0-------0-------0-------0---0------|

D|-2-2-----2-2------0-0-----0-0---------------------------------------2------|

A|----------------------------------2-2-----2-2-----3-3-----3-3-------3------|

E|---------------------------------------------------------------------------|

Verse

e|---------------------------------------------------------------------------|

B|---------------------------------------------------------------------------|

G|---------------------------------------------------------------------------|

D|-9-9-9-9-9-9-9-9-5-5-5-5-5-5-5-5-7-7-7-7-7-7-7-7-4-4-4-4-4-4-4-4-----------|

A|-7-7-7-7-7-7-7-7-3-3-3-3-3-3-3-3-5-5-5-5-5-5-5-5-2-2-2-2-2-2-2-2-----------|

E|---------------------------------------------------------------------------|

Chorus

e|---------------------------------------------------------------------------|

B|---------------------------------------------------------------------------|

G|---------------------------------------------------------------------------|

D|-9-9-9-9-9-9-9-9-----------------5-5-5-5-5-5-5-5-7-7-7-7-7-7-7-7-----------|

A|-7-7-7-7-7-7-7-7-9-9-9-9-9-9-9-9-3-3-3-3-3-3-3-3-5-5-5-5-5-5-5-5-----------|

E|-----------------7-7-7-7-7-7-7-7-------------------------------------------|

Interlude

e|------------------------------------2-2-2-2-2-2-2-2------------------------|

B|------------2---2------------2---2--3-3-3-3-3-3-3-3------------------------|

G|---2---2---2-2-2-2--2---2---2-2-2-2-2-2-2-2-2-2-2-2------------------------|

D|--2-2-2-2-0---0----2-2-2-2-0---0----0-0-0-0-0-0-0-0------------------------|

A|-0---0------------0---0----------------------------------------------------|

E|---------------------------------------------------------------------------|

===============================================================================

Get this song at:  amazon.com sheetmusicplus.com

Share your thoughts

0 Comments found