A Day Late

A Day Late - Cocktease guitar tab

-------------------------------------------------------------------------------

Cocktease - a day late

-------------------------------------------------------------------------------

By:daniel the lead guitarist, kerplunk6@hotmail.com

hey andy they guy who ses his our guitar player and tabs all our songs that we dont have??? obviously

ure band name is a day late aswell email please mate if u see this so that we can talk bout our bands...

i will change my band name if u email me. anywhoo here is one of our songs its called cocktease

intro 4x > slide to

e|---------------------------------------------------------------------------|

B|---------------------------------------------------------------------------|

G|---7>-10>-11>-7>-9>-5------------------------------------------------------|

D|-7-******************-5--6--7----------------------------------------------|

A|-7-5>-8->-9->-5>-7>-3-5--6--5----------------------------------------------|

E|-5--------------------3--4--5----------------------------------------------|

verse 8x

e|---------------------------------------------------------------------------|

B|---------------------------------------------------------------------------|

G|-----10--7---5-------------------------------------------------------------|

D|-7---*---*---*-------------------------------------------------------------|

A|-7---8---5---3-------------------------------------------------------------|

E|-5-------------------------------------------------------------------------|

chorus 4x

e|---------------------------------------------------------------------------|

B|---------------------------------------------------------------------------|

G|--------**6**6-**7**7------------------------------------------------------|

D|-**7**7-**6**6-**7**7-**5**4-----------------------------------------------|

A|-**7**5-**4**4-**5**5-**5**4-----------------------------------------------|

E|-**5**5---------------**3**2-----------------------------------------------|

repeat all that again then and let the last note ring out for a bit drums do a

little solo/drum roll then guitars go solo. 2

e|---------------------------------------------------------------------------|

B|---------------------------------------------------------------------------|

G|----------------14-15-16---16-15-14----------------9--14-------------------|

D|------------------------------------7--------------------------------------|

A|-11-9-8-12-9-8-------------------------987654321-0-7--12-------------------|

E|---------------------------------------------------------------------------|

thats pretty much it i probably screwedup the solo cause i hate righting tabs down but who cares cause

no one has heard our band anyway... andy please send me an email or add me to ure messenger list so we

can talk who know we might no each other and if ure lookin for a rhythm guitarist/singer then im more

then happy to help out cause my band is givin me da shits...laters...p.s i play punk

Get this song at:  amazon.com sheetmusicplus.com

Share your thoughts

0 Comments found