A Day Late

A Day Late - As Seen On TV guitar tab

By: Andy Late

e|-8--8--8---8-8--1-1-1--11--5-5-5--55--3-3-3--33----------------------------|

B|-8--8--8---8-8--1-1-1--11--5-5-5--55--3-3-3--33----------------------------|

G|-9--9--9---9-9--2-2-2--22--6-6-6--66--4-4-4--44----------------------------|

D|10-10-10--1010--3-3-3--33--7-7-7--77--5-5-5--55----------------------------|

A|---------------------------------------------------------------------------|

E|---------------------------------------------------------------------------|

e|-----8-------1-------5-------3---------------------------------------------|

B|----8-8-----1-1-----5-5-----3-3--------------------------------------------|

G|---9---9---2---2---6---6---4---4-------------------------------------------|

D|-10-------3-------7-------5------------------------------------------------|

A|---------------------------------------------------------------------------|

E|---------------------------------------------------------------------------|

==========================================

Get this song at:  amazon.com sheetmusicplus.com

Share your thoughts

0 Comments found