8 Foot Sativa

8 Foot Sativa - 8 Foot Sativa guitar tab

Self Titled song From New Zealand's top metal band

Song number 10 of their first album "Hate Made Me" from 2002

INTRO:

S-slide

-----------------------------------|

-----------------------------------|

-----8-s-7---8-s-7-------8-s-7-----| x4

-----------------------------------|

-----6-s-5---6-s-5-------6-s-5-----|

-----------------------------------|

-----------------------------------------------------------------------|

-----------------------------------------------------------------------|

-----------------------------------------------------------------------|

-----------------------------------------------------------------------|

-1-----3-0---0-1-1--1-----3-0--0-1-1--1-----3-0--0-1-1--1-----3-0-1-1--|

-1-0-0-3-0---0-1-1--1-0-0-3-0--0-1-1--1-0-0-3-0--0-1-1--1-0-0-3-0-1-1--|

play throught twice then onto:

this is where the vocals come in

---------------------------------------------------------------|

---------------------------------------------------------------|

-2---9---10----3---9---10----4---9---10---1-1-1----1-----------|

-0-------------0-------------0------------0-0-0----0-----------|

-------------------------------------------------------3-------|

-------------------------------------------------------3--(3)--|

---------------------------------------------------------------|

-----------------------------------8---10----------------------|

-2---12---14----3---12---14----4-------------1-1-1----1-1------|

-0--------------0--------------0-------------0-0-0----0-0------|

---------------------------------------------------------------|

---------------------------------------------------------------|

play this part through twice

----------------------------------------------------|

----------------------------------------------------|

----------------------------------------------------|

-3---------3---------3-----6---------6---------6-5--|X4

-1-0-0-0-0-1-0-0-0-0-1-0-0-4-4-4-4-4-4-4-4-4-4-4-3--|

----------------------------------------------------|

----------------------------------------------------------------|

----------------------------------------------------------------|

----------------------------------------------------------------|

----------------------------------------------------------------|X2

-0-1---0-1---0-1---0-1---1---1---0-1---0-1---0-1---0-1---0---0--|

-0-1---0-1---0-1---0-1---1---1---0-1---0-1---0-1---0-1---0---0--|

step up step up step up for sativa......

-------------------------------------------|

-------------------------------------------|

-------------------------------------------|

-7-------5-------10-8-7-------7------------|

-5-------3-------8--6-5-------5-----3------|

---0-0-0---0-0-0--------0-0-0---0-0-3------|

-------------------------------------------|

-------------------------------------------|

-------------------------------------/10---| / - Slide into from above.

-7-------5-------10-8-7-------7------------|

-5-------3-------8--6-5-------5------/8----|

---0-0-0---0-0-0--------0-0-0---0-0--------|

play this part 7 times

then prity much start the song again!Added by tabs-database.com and our distinguished partners

Get this song at:  amazon.com sheetmusicplus.com

Share your thoughts

0 Comments found