7 Mary 3

Cumbersome Tabs



More from 7 Mary 3

7 Mary 3 Tabs

BAND: 7 Mary 3
SONG: Cumbersome

Well, after listening to Seven-Mary-Three I've pretty much figured out
the basic rythm of the song Cumbersome.  It's pretty simple, actually.  
It follows a:
F# - E - B 
pattern with moderate muting of the strings

F# - 2 4 4 3 2 2
E  - 0 2 2 1 0 0
B  - 2 2 4 4 4 -

And after he sings, "Oh no, no no no" I believe it's 
B - E.  Listen to the song and you will get the basic jist of 
it.  It sounds like a great song to play unplugged.
Since I don't have the album I can't really write the lyrics out.
Have fun.  

I've also attempted to determine the bassline, although I don't have the
music with me RIGHT now...Here goes, sort of a walking bassline.

x = mute

G------------------------------------------------------------------------
D---------------------------------2--2--x-x-x--2--2----4--2--------------
A-----------------------------2-4----------------------------5--4--2--2--
E--2--2---x-x-x---2--2----2-4--------------------------------------------

G---------------------------------------------
D---------------------------------------------
A-x-x-x--2--2---4--2--------------------------
E---------------------5--4--2--2--x-x-x--2----

Any comments, questions, or marriage proposals write to
Ledig@ee.fit.edu
Transcribed by Kevin Ledig



Date: Mon, 11 Dec 95 05:33:32 UT
From: "Glenn Denny" 
Subject: TAB:  Cumbersome  by  7 Mary 3

Here is the tab for 7-mary-3 "Cumbersome"!!! I know this is right because I 
saw them play it
on TV!!! But I could have made an error while I made the tab. This tab is not 
in the standard 
format; I just made a bunch of Figs and then made a table showing the order 
to play them and 
also what guitars play them and how long they play them. I also dident mess 
around with the 
strums or the dead notes. I just put the cord. Just thought I would try it. 
Let me 
know what you think. Let me know if you post it somewhere else, so that I can 
know how 
much it spreads. And I just want you to know that I did not copy a single 
note from anyone, as
I have never seen a tab for this song!!! I learned how to play it from 
watching them on tv. 
My name and e-mail address are at the bottom of this tab.


========================================
==       TABLATURE EXPLANATION        ==
========================================

----------                ----------                ----t---
----5h8--- Hammeron       ----(8)--- Ghost          ----6--- Tap
----------                ---------- Note           --------
----5p8--- Pulloff        ----------                --------

----------                ----------                -----p--
----5/8--- Slide Up       -----x---- Dead           -----7-- Pop
----------                ---------- Note           --s-----
----58--- Slide Down     ----------                --5----- Slap 

----------                ||------|| Repeat         --------
----5~~~-- Vibrato        ||*----*||                ---5^--- Bend
----------                ||*----*||                --------
----------                ||------||                --------

----------                ----------                --------
-4:------- Time           ----------                --------
-4:------- Signature      ----------                --------
----------                ----------                --------



Gtr. 1 [Fig. 1] 1 time
Gtr. 1 and 2 [Fig. 1] 2 times
Gtr. 1 and 2 [Fig. 2] 2 times
Gtr. 1 and 2 [Fig. 1] 2 times
Gtr. 1 and 2 [Fig. 2] 2 times
Gtr. 1 [Fig. 4] Gtr. 2 [Fig. 3] 2 times
Gtr. 1 and 2 [Fig. 5] 2 times
Gtr. 2 [Fig. 6] 3 times
Gtr. 1 [Fig. 4] Gtr. 2 [Fig. 3] 2 times {GTR. 1 READ NOTE}	
Gtr. 1 and 2 [Fig. 5] just play that until the song is over!!!

   Fig. 1                               
|--2--------0-------------2--|
|--2--------0-------------2--|
|--3--------1-------------3--|
|--4--------2-------4-----4--|
|--4--------2-------2-----4--|
|--2--------0-------2-----2--|
                                        

                                        
                                  

   Fig. 2                         
|--2--2-----------5--5---------------0--0-----------2--|
|--2-----2--------5-----5------------0-----0--------2--|
|--3--------3-----6--------6---------1--------1-----3--|
|--4--------------7------------------2--------------4--|
|--4--------------7------------------2--------------4--|
|--2--------------5------------------0--------------2--|
                                        

                                      

   Fig. 3                               
|--2-----5-----0--0-----2--|
|--2-----5-----0--0-----2--|
|--3-----6-----1--1-----3--|
|--4-----7-----2--2-----4--|
|--4-----7-----2--2-----4--|
|--2-----5-----0--0-----2--|
                                        

                                        
                                    

   Fig. 4                            
|------------------0---------|On the last time you play this in the song, 
replace that
|------------------0---------|last note with [Fig. 7]. 
|------------------9---------|
|--11-----9-----9--------11--|
|--9------7-----9--------9---|
|--9------7-----7--------9---|
                                        

                                        
                                       

   Fig. 5                               
|--5-----2-----0-----2--|
|--5-----2-----0-----2--|
|--6-----3-----1-----3--|
|--7-----4-----2-----4--|
|--7-----4-----2-----4--|
|--5-----2-----0-----2--|
                                        

                                        
                                      

   Fig. 6                         
|--2-----2-----0-----0----------0-----2--------------|on the last time 
|--2-----------0----------------------2--------------|make that 3^-^-^
|--3-----------1----------------------3-----3^-^-^---|with a pick slide.
|--4-----------2-----------4----------4--------------|
|--4-----------2-----------2----------4--------------|
|--2-----------0-----------2----------2--------------|
                                        



Fig. 7                                  
|------------------------------------------------------|
|------------------------------------------------------|
|--------------9--10-----10--9-------------------------|
|-------9--10-------------------10--9------------------|
|9--10-----------------------------------10--9---------|
|-----------------------------------------------10--9--|
                                        

                                        
Eric Denny
glenny_denny@msn.com
or
dglenn@prysm.net

Good Luck!!!






                                        





From: FeedBakc@aol.com
Date: Wed, 3 Jan 1996 10:11:34 -0500
Subject: TAB: Cumbersome BY Seven Mary Three

Cumbersome
by Seven Mary Three
from the album American Standard
=0D
--------------------------------------------------------------------
This TAB transcription was created using TAB MASTER version 1.0
by Ofir Zwebner, e-mail: ofirz1@ccsg.tau.ac.il
                    snail-mail: Ehoud 10, Tel Aviv, 69936, Israel
--------------------------------------------------------------------
=0D
Okay I didn't bother with the guitar fluff during the interlude,
so if you want it that bad, figure it out yourself (I may do it
if I get enough requests...)
=0D

   intro + verse                   "I have become..."
e:-2----0-0-------------2-------||-2-2-----5-5-----0-0-----0/2---||
B:-2----0-0------4------2-------||-2---2---5---5---0---0---0/2---||
G:-3------1------4------3-------||-3-----3-6-----6-1-----1-1/3---||
D:-4------2------4------4-------||-4-------7-------2-------2/4---||
A:-4------2------2------4-------||-4-------7-------2-------2/4---||
E:-2------0-------------2-------||-2-------5-------0-------0/2---||
=0D


=0D
   "Too heavy..."              post-chorus
e:-2----5----0---0---0/2----||-5-5---2---------0-0---2--------||
B:-2----5----0---0---0/2----||-5-5---2---------0-0---2--------||
G:-3----6----1---1---1/3----||-6-6---3---------1-1---3--------||
D:-4----7----2-------2/4----||-7-7---4---------2-2---4--------||
A:-4----7----2-------2/4----||-7-7---4---------2-2---4--------||
E:-2----5----0-------0/2----||-5-5---2---------0-0---2--------||
=0D

                                =

=0D
   fill during last chorus
e:----------------------------||
B:----------------------------||
G:----------------------------||
D:---------2h4---4--2---------||
A:-----2h4------------4-2-0---||
E:-2h4----------------------2-||
=0D
Get this song at amazon.com      Ebay     Ringtones Ringtones  


Learn to play: Songwriting, Piano, Harmonica, Guitar

Related 7 Mary 3 Tabs

Lucky tabs
Waters Edge tabs
Cumbersome tabs
Lame tabs
Margaret tabs
My My tabs
When You Gonna Make Up Your Mind tabs


Guitar Tabs









All tabs are property and copyright of their owners. All tabs provided for educational purposes only. Privacy Policy, DMCA