5ks

5ks - Dream guitar tab

Artist: 5ks

Title: Dream

Author: Andy Roth

Tuning: Standard (EADGBE)

Intro(x2):

|----------------------------|

|----------------------------|

|---------------------7-7--7-|

|-9-9--10-10--10-5-5--7-7--7-|

|-9-9--10-10--10-5-5--5-5--5-|

|-7-7--8--8---8--3-3---------|

|-----------------------------|

|-----------------------------|

|-----------------------------|

|-9-9--10-10--10-5-5--4-4-5-5-|

|-9-9--10-10--10-5-5--4-4-5-5-|

|-7-7--8--8---8--3-3--2-2-3-3-|

*clean

Chorus(x4):

|----------------------------|

|----------------------------|

|---------------------7-7--7-|

|-9-9--10-10--10-5-5--7-7--7-|

|-9-9--10-10--10-5-5--5-5--5-|

|-7-7--8--8---8--3-3---------|

|-----------------------------|

|-----------------------------|

|-----------------------------|

|-9-9--10-10--10-5-5--4-4-5-5-|

|-9-9--10-10--10-5-5--4-4-5-5-|

|-7-7--8--8---8--3-3--2-2-3-3-|

*distortion

Get this song at:  amazon.com sheetmusicplus.com

Share your thoughts

0 Comments found