38 Special

38 Special - Caught Up In You guitar tab

Caught Up In You- 38 Special

Tabed BY KENNY Email- webmaster at tabs-database.com.com

Intro

e-------------------]

B--5-5-5-4-4-4-4-4--]

G--4-4-4-4-4-4-4-4--]

D-------------------]

A-------------------]X2

E-------------------]

Verse- Guitar 1

e------------------]-----------------]-----------------]------------------|

B------------------]-----------------]-----------------]------------------|

G------------------]-----------------]-----------------]------------------|

D--9-----9-------6-]-------4-------2-]-----2---6-----4-]-----4-------4----|

A--7-7-7-6-6-6-6-4-]-4-4-4-2-2-2-2-0-]-0-0-0-0-4-4-4-2-]-2-2-2-2-2-2-2-2--|

E------------------]-----------------]-----------------]------------------|

Guitar 2

e------------------]-----------------]-----5-----5-----]------------------|

B--5-5-5-4-4-4-4---]-----------------]-----5-----5-----]------------------|

G--4-4-4-4-4-4-4-6-]-6-6-6-4-4-4-4-2-]-2-2---2-6---6-4-]-4-4-4-4-4-4-4-4--|

D----------------6-]-6-6-6-4-4-4-4-2-]-2-2---2-6---6-4-]-4-4-4-4-4-4-4-4--|

A------------------]-----------------]-----------------]------------------|X2

E------------------]-----------------]-----------------]------------------|

Guitar 1 End Verse Guitar 2

e-----------------]------------------]

B-----------------]------------------]

G-----------------]-4-4-4-4-4--------]

D-----4-4-4-----2-]-4-4-4-4-4-----2--]

A-2-2-2-2-2-----0-]---------------0--]

E-----------2-4---]-----------2-4----]

Pre Chorus-Both Guitars

e------------------]-----------------]-----------------]--------------------|

B------------------]-----------------]-----------------]--------------------|

G------------------]-----------------]-----------------]--------------------|

D-2---2---6---6-4--]-4---4---4-------]-2---2---6---6-4-]-4---4---4---4------|

A-0-0-0-0-4-4-4-2--]-2-2-2-2-2-------]-0-0-0-0-4-4-4-2-]-2-2-2-2-2-2-2------|

E------------------]-----------0-2-4-]-----------------]---------------4----|

e------------]----------]-----------------]--------------------------------|

B------------]----------]-----------------]--------------------------------|

G------------]-2----3---]-----------------]--------------------------------|

D---4---6----]-2----3---]---4-4-4-4-4-4-4-]-4-4-4-4-4-4-4-2----------------|

A---4---6--0-]----1---1/]-2-2-2-2-2-2-2-2-]-2-2-2-2-2-2-2-0----------------|

E-2-----4----]----------]-----------------]--------------------------------|

Chorus Guitar 1

e----------------]-------------]-------------]----------------]

B----------------]-------------]-------------]----------------]

G----------------]-------------]-------------]----------------]

D--2---2---------]-------------]-------------]--------------2-]

A--0---0---------]-------------]-------0-2-4-]-4-4----------0-]X2

E---------0--5-4-]-4--4--4-0-2-]--2--2-------]------0--2--4---]

Guitar 2

e----------------]-------------]-------------]----------------]

B-----5------5---]---5----5----]----5---5----]---5-----5------]

G-------6--------]----4--------]-----4-----6-]-6---6----------]

D--7------7----6-]-6----6---4--]-4----4------]-------6------7-]

A----------------]-------------]-------------]----------------]x2

E----------------]-------------]-------------]----------------]

Chorus Guitar 1

e----------------]-------------]-------------]----------------]

B----------------]-------------]-------------]----------------]

G----------------]-------------]-------------]----------------]

D--2---2---------]-------------]-------------]-----------4----]

A--0---0--2------]-------------]-------------]----1------2----]

E------------5-4-]-4--4--4-0-2-]-2---4----5--]-5--------------]

Guitar 2

e----------------]-------------]-------------]----------------]

B-----5------5---]---5----5----]---5-----5---]---5------5-----]

G-------6--------]----4--------]-----4----4--]-----4-3----3-4-]

D--7------7----6-]-6----6---4--]-4-----6----7]-7--------------]

A----------------]-------------]-------------]----------------]

E----------------]-------------]-------------]----------------]

Both Guitars THE 2nd Time

e-----------------]------]-----------------]

B-----------------]------]-----------------]

G-----------------]------]-----------------]

D-4-4-4-4-4-4-4-4-]-4----]-4-4-4-4-4-4-4-2-]

A-2-2-2-2-2-2-2-2-]-2----]-2-2-2-2-2-2-2-0-]

E-----------------]------]-----------------]

Interlude G1

e---]---]---]-4----]---]---]--]

B---]-2-]---]-5--4-]---]-2-]--]

G-6-]-2-]-4-]-4--4-]-6-]-2-]-4]

D-6-]-4-]-4-]----1-]-6-]-4-]-4]

A-4-]-4-]-2-]------]-4-]-4-]-2]

E---]---]---]------]---]---]--]

G2 Play this twice after the 3rd one

e-------------]--------------]--------------------------]

B-------------]--------------]--------------------------]

G-------------]--------------]--------------------------]

D-------------]--------------]----------2-2-2-2-1-1-1-1-]

A-4---4-------]------4--4----]-2---2---2----------------]

E---4---4-0-4-]-2---2--2---2-]---2--2-2-----------------]

G2

e--------------]---------------]

B--------------]---------------]

G--------------]---------------]

D--------------]-4-4-4-4-4----2]

A-2-2-2-2-2-2-2]-2-2-2-2-2-6--2]

E--------------]-----------4---]

Bridge guitar 1

e--------------------------------]--4-4-4-4-]-2-2-2-2]--------]

B--------------------------------]--5-5-5-5-]-2-2-2-2]4-4-4-4-]

G--------------------------------]--6-6-6-6-]-2-2-2-2]4-4-4-4-]

D--------------------------------]----------]--------]4-4-4-4-]

A--------------------------------]----------]--------]--------]

E--------------------------------]----------]--------]--------]

Guitar 2

e----------------]---------------]----------]--------]---------]

B----------------]---------------]----------]--------]---------]

G----------------]---------------]----------]--------]---------]

D----------------]-4-4-4-4-4---4-]--6-------]-6-5-4--]-------4-]

A-2-2-2-2-2-2-2-2]-2-2-2-2-2-6-2-]-/4-6-5-2-]-4-3-2--]-------4-]

E----------------]-----------4---]----4-3-2-]--------]-------2-]

Bridge Continue

Guitar 1

e--------]--4-4-4-4-]--2-2-2-2-]------------------]

B-5----4-]--5-5-5-5-]--2-2-2-2-]------------------]

G-4----4-]--6-6-6-6-]--2-2-2-2-]--4-4-4-4-4-4-4-4-]

D--------]----------]----------]--4-4-4-4-4-4-4-4-]

A--------]----------]----------]------------------]

E--------]----------]----------]------------------]

G-2

e-------]-----------]----------]------------------]

B-------]-----------]----------]------------------]

G-9-----]--6--------]----------]------------------]

D-9---9-]--6--------]----4-----]--4-4-4-4-4-4-4-4-]

A-7---6-]--4--6-5-4-]----4-----]--2-2-2-2-2-2-2-2-]

E-------]-----4-3-2-]----2-----]------------------]

Guitar SOLO Guitar 1

e-------]-------------------]-----------------]---------------------------]

B-------]----------12-14-12-]-12--------------]---------------------------]

G--9/14-]-14-14-14----------]-----------13-14-]-14-13-14-13-11-13"13-11---]

D-------]-------------------]----14-----------]------------------------11~]

A-------]-------------------]-----------------]---------------------------]

E-------]-------------------]-----------------]---------------------------]

e----------------]---------------]---------]----------------]12------------]

B----------------]---------------]-------9-]---9-8^---------]--------------]

G----------------]--------8-9-9"-]-----9---]--------11"-9---]---11^-9--9~--]

D11~-------9--11-]--9--11--------]---------]--------------11]--------11--11]

A----11-12-------]---------------]---------]----------------]--------------]

E----------------]---------------]---------]----------------]--------------]

e---------------------]------------------------------------]

B---------------------]------------------------------------]

G-6-6-8-8-8-9-9-9-11-11]-11-13-13-13-11-11-11-13-13-13-13^-]

D---------------------]------------------------------------]

A---------------------]------------------------------------]

E---------------------]------------------------------------]

e------------------]-----------------------12-14----]12-14-16-17-17^---------]

B-----------12--14-]-14--12p14h12----12h14-------17^]12-14-16-17-17^---------]

G--11-13/14--------]--------------14-------------14^]------------------------]

D------------------]--------------------------------]------------------------]

A------------------]--------------------------------]------------------------]

E------------------]--------------------------------]------------------------]

e---------------]---------------]------------------]------11---11-12-14-14---]]

B---------------]-------------10]-9-10-12-10-12-14-]-12-14--14---------------]

G-11"-9----9~---]-11"--9--9~----]------------------]-------------------------]

D-------11----11]-------11------]------------------]-------------------------]

A---------------]---------------]------------------]-------------------------]

E---------------]---------------]------------------]-------------------------]

OUTRO SOlO: 2nd Guitar do Chorus

e-14^-14"-12-12]-14'-------16^]--14^-12------12-]-----------------------]

B--------------]-----12-12----]--------12h14----]----12-----------------]

G--------------]--------------]-----------------]-14^----11^-11^-9----9-]

D--------------]--------------]-----------------]------------------11---]

A--------------]--------------]-----------------]-----------------------]

E--------------]--------------]-----------------]-----------------------]

e--------------]-12-----------------------]---------------]-------------]

B--------------]--------------------------]---------------]-------------]

G-9~----9--9---]---11^-9----9~--9h11p9----]-9-11^11^11^11^]-11^-9---11/4]

D----11------11]---------11------------11-]---------------]------11-----]

A--------------]--------------------------]---------------]-------------]

E--------------]--------------------------]---------------]-------------]

e----------------------]-----------------------------]----------------]

B----------------------]-----------------------------]-----------9-12^]

G6-6-6-6-8-8-8-9-11-11-]11-13-13-13-11-11-11-13-13h14]13-11-9-11^-----]

D----------------------]-----------------------------]----------------]

A----------------------]-----------------------------]----------------]

E----------------------]-----------------------------]----------------]

e--------------]---------]-------------]--------------]------------------]

B14-12---------]11"------]11"----------]11"-----11"---]--11-------11"----]

G------11"-9--9]11"-9--9~]11"9--9~-5/16]11"9--9-11"9--]9-11"-9--9-11"-9--]

D-----------11-]-----11--]----11-------]----11------11]-------11-------11]

A--------------]---------]-------------]--------------]------------------]

E--------------]---------]-------------]--------------]------------------]

e-------------------------------------------]-16t12p7-14t12p7--]Tapping

b17-14------------17-----17-----17----------]------------------]Part

G------16-14-13-14--16h18--16h18--18-18-16--]------------------]9 times

D-----------------------------------------18]------------------]

A-------------------------------------------]------------------]

E-------------------------------------------]------------------]

e----------------------------------]--------]--16t12p7-14t12p7-]

B--17-14------------17------17-----]-17-----]------------------]

G-------16-14-13-14----16p18--16p18]---16h18]------------------]

D----------------------------------]--------]------------------]

A----------------------------------]-do 14X-]------------------]

E----------------------------------]--------]------------------]

LAST CHORUS/OUTRO SOLO

e----------------]-----------]-----------------]---------12-----]

B-------12-14-12-]-----------]-----------------]------12--------]

G-14-14----------]------13-14]-13-11-13"-11----]--/13-------14--]

D----------------]--14-------]-------------11~-]----------------]

A----------------]-----------]-----------------]----------------]

E----------------]-----------]-----------------]----------------]

e12-12------12------]----9-----------]12---12------------]-------------]

B-----------------12]----------------]-------------------]-------------]

G-----13/14----14---]11^---11"-9--11^]--11^--11^11^11"9--]-11"-9--9---9]

D-------------------]----------------]-----------------11]------11-11--]

A-------------------]----------------]-------------------]-------------]

E-------------------]----------------]-------------------]-------------]

I HOPE YOU ENJOY THIS TAB! IT CAN BE A LITTLE HARD TO FOLLOW, BUT THIS SONG

IS AMAZING.

^ bend

" bend release

Other than that you should be able to do it.Added by tabs-database.com and our distinguished partners

Get this song at:  amazon.com sheetmusicplus.com

Share your thoughts

0 Comments found