38 Special

38 Special - Caught Up In You Bass guitar tab

-------------------------------------------------------------------------------

Caught Up in You - .38 Special

-------------------------------------------------------------------------------

Tabbed By : N. Johnson

e-mail: webmaster at tabs-database.com.com

No Bass in Intro

Verse 2X 2X

G-------------|------|

D-------------|------|

A-7-6-4-2-0-42|-0-4-2|

E-------------|------|

Pre Chorus

G----------|

D----------|

A-----0-1-2|bunch of 2s

E-2-4------|

Chorus 1 3X

G--------|

D--------|

A--------|

E-5-4-0-2|

Chorus 2

G--------------|

D--------------|

A---------0-1-2|bunch of 2s

E-5-4-2-4------|

Verse 2X 2X

G-------------|------|

D-------------|------|

A-7-6-4-2-0-42|-0-4-2|

E-------------|------|

Pre Chorus

G----------|

D----------|

A-----0-1-2|bunch of 2s

E-2-4------|

Chorus 1 3X

G--------|

D--------|

A--------|

E-5-4-0-2|

Chorus 2

G--------------|

D--------------|

A---------0-1-2|bunch of 2s

E-5-4-2-4------|

Interlude

G|-|-|-|-|-|-|-|

D|-|-|-|1|-|-|-|

A|4|4|2|-|4|4|2|Bunch of 2s

E|-|-|-|-|-|-|-|

Bridge

G----------------------|

D----------------------|

A-4-----432-76-4----432|bunch of 2s

E---432----------432---|

Solo

G--------|

D--------|

A--------|

E-5-4-0-2|

G--------------|

D--------------|

A---------0-1-2|bunch of 2s

E-5-4-2-4------|

G--------|

D--------|

A--------|

E-5-4-0-2|

G--------------|

D--------------|

A---------0-1-2|bunch of 2s

E-5-4-2-4------|

Bridge

G----------------------|

D----------------------|

A-4-----432-76-4----432|bunch of 2s

E---432----------432---|

Chorus 1 3X

G--------|

D--------|

A--------|

E-5-4-0-2|

Chorus 2

G--------------|

D--------------|

A---------0-1-2|bunch of 2s

E-5-4-2-4------|

Chorus 1 3X

G--------|

D--------|

A--------|

E-5-4-0-2|

Chorus 2

G--------------|

D--------------|

A---------0-1-2|bunch of 2s

E-5-4-2-4------|

===============================================================================Added by tabs-database.com and our distinguished partners

Get this song at:  amazon.com sheetmusicplus.com

Share your thoughts

0 Comments found