311

311 - Told Myself guitar tab

Author/Artist: 311

Title: I Told Myself

Album: From Chaos

Transcribed by: Chris Camano

Email: ShuVeLn311@aol.com

I find this tab to be pretty accurate

Don't forget the Palm Mutes! ( the x's below the staff)

Also, listen carefully to the song to get the right speed and timing

Standard Eadgbe Tuning

Song Structure is:

1st Intro

2nd Intro

Verse

Pre-Chorus

Chorus

Bridge

Verse

Pre-Chorus

Chorus

Interlude

Chorus

First Intro -- Have 2 guitars play the intro!

-10-8-5-0-10-8-5-0------------------------------------------------------------

------------------------------------------------------------------------------

------------------------------------------------------------------------------

------------------------------------------------------------------------------

------------------------------------------------------------------------------

------------------------------------------------------------------------------

Second Intro(x2)

-10----8-6----8-6-5---5-10-8--------------------------------------------------

------------------------------------------------------------------------------

------------------------------------------------------------------------------

------------------------------------------------------------------------------

------------------------------------------------------------------------------

------------------------------------------------------------------------------

Verse

------------------------------------------------------------------------------

------------------------------------------------------------------------------

------------------------------------------------------------------------------

------------------------------------------------------------------------------

------------------------------------------------------------------------------

-5-3--5-3--0-1-1--0-1-1--5-2--5-2--0-1-1--0-1-1-------------------------------

x x x x x x x x x x x x x x x x x x x x

------------------------------------------------------------------------------

------------------------------------------------------------------------------

------------------------------------------------------------------------------

------------------------------------------------------------------------------

------------------------------------------------------------------------------

-5-3--5-3--0-1-1--0-1-1--5-2--5-2--0-1-1-1-1-1--------------------------------

x x x x x x x x x x x x x x x x x x x

------------------------------------------------------------------------------

------------------------------------------------------------------------------

------------------------------------------------------------------------------

------------------------------------------------------------------------------

------------------------------------------------------------------------------

-5-3--5-3--0-1-1--0-1-1--5-2--5-2--0-1-1-1-1-1-1------------------------------

x x x x x x x x x x x x x x x x x x x Pre Chorus(x4)

------------------------------------------------------------------------------

------------------------------------------------------------------------------

------------------------------------------------------------------------------

------------------------------------------------------------------------------

------------------------------------------------------------------------------

-3--3-3-3-5-6-5---3---3-3-3-3-------------------------------------------------

Chorus(x4) (Note: On the 3rd and 4th time, let each chord ring! NO MUTES!)

------------------------------------------------------------------------------

------------------------------------------------------------------------------

---4---------4--------4---------4---7\\\--------------------------------------

-2-4-7\6-2-2-4-7-6--2-4-7\6-2-2-4-7-7\\\--------------------------------------

-0-2-7\6-2-2-2-7-6--2-2-7\6-2-2-2-7-5\\\--------------------------------------

-0---5\4-0-0---5-4--0---5\4-0-0---5-------------------------------------------

X X Bridge

-10-8-5-0-10-8-5-0------------------------------------------------------------

------------------------------------------------------------------------------

------------------------------------------------------------------------------

------------------------------------------------------------------------------

------------------------------------------------------------------------------

------------------------------------------------------------------------------

2nd Guitar

------------------------------------------------------------------------------

------------------------------------------------------------------------------

------------------------------------------------------------------------------

-12-10-7-2-12-10-7-2----------------------------------------------------------

-12-10-7-2-12-10-7-2----------------------------------------------------------

-10-8--5-0-10-8--5-0----------------------------------------------------------

Interlude

------------------------------------------------------------------------------

------------------------------------------------------------------------------

------------------------------------------------------------------------------

-4---5---4---5---5-3--4---5---4---5--5-3--------------------------------------

-4---5---4---5--3---3-4---5---4---5-3---3-------------------------------------

-2---3---2---3--------2---3---2---3-------------------------------------------

------------------------------------------------------------------------------

------------------------------------------------------------------------------

------------------------------------------------------------------------------

-3-3-3-3-3-3-3-3-3-3-3-3-3-3-3-3-5-5-5-5-5-5-5-5-5-5-5-5-5-5-5-5--------------

-3-3-3-3-3-3-3-3-3-3-3-3-3-3-3-3-5-5-5-5-5-5-5-5-5-5-5-5-5-5-5-5--------------

-1-1-1-1-1-1-1-1-1-1-1-1-1-1-1-1-3-3-3-3-3-3-3-3-3-3-3-3-3-3-3-3--------------

x x x x x x x x x x x x x x x x x x x x x x x x

Get this song at:  amazon.com

Share your thoughts

0 Comments found