311

311 - To Be Honest bass tab

From: IllIHeXIll

To: 311archive@chromosome.colorado.edu

Subject: To Be Honest -- Bass Tab

Date: Monday, December 08, 1997 8:47 PM

'To Be Honest' -- Bass Tab

Performed by 311

From the album "Dammit!" on What Have You? Records

Music by: ??? (N. Hexum)

Lyrics by: ??? (N. Hexum)

(c) 1991 Allegiance Music/Hydroponic Music BMI

---------------

Tabbed by: Justin Reynolds (IllIHeXIll@aol.com)

The 311 Guitar Archive -- http://chromosome.colorado.edu/311archive/Home.html

Riff 1:

=======

G:------5-----7-9-

D:-7-7--7--7--7---

A:----------------

E:----------------

Riff 2:

=======

G:------------

D:------------

A:---2-3--5-3-

E:-3----------

Riff 3:

=======

G:-------

D:-------

A:-3-3-3-

E:-------

Riff 4:

=======

G:----------------

D:----------------

A:----------------

E:-10///7--5--7h9-

== Last Updated: December 13, 1997 ==

Get this song at:  amazon.com

Share your thoughts

0 Comments found