311

311 - Time Is Precious guitar tab

This one's a B-side off Evolver and it's mighty fine if you ask me.

Intro/Verse: Clean (maybe some reverb for effect)

e:-------------------------------|

B:-------------------------------|

G:-------------------------------| 6 times

D:---0-----0--0-----0-----0--0---|

A:-------------------------------|

E:-1---1-1------1/3---3-3--------|

Then

e:-------------------------------|

B:-------------------------------|

G:---0-----0--0-----0-----0--0---|

D:-------------------------------|

A:-------------------------------|

E:-1---1-1------1/3---3-3--------|

Chorus(soft)

e:--0-0---0-0-0--------------|

B:--1-1---1-1-1--------------|

G:--0-0---0-0-0--------------|

D:--2-2---2-2-2--------------|

A:--3-3---3-3-3--3--3-3-3-2--|

E:---------------1--1-1-1-0--|

Heavy part right before the 2nd chorus:

e:-------------------------------|

B:-------------------------------|

G:--5---5-5-5---5-5-7-5-7-9-7-5--|

D:--5---5-5-5---5-5-7-5-7-9-7-5--|

A:--3---3-3-3---3-3-5-3-5-7-5-3--|

E:--3---3-3-3---3-3-5-3-5-7-5-3--|

Chorus(heavy)

e:---------------------------|

B:---------------------------|

G:--5-5--5-5-5---------------|

D:--5-5--5-5-5--3--3-3/5-5-2-|

A:--3-3--3-3-3--3--3-3/5-5-2-|

E:--3-3--3-3-3--1--1-1/3-3-0-|

Ending

e:----------------------------------------------|

B:----------------------------------------------|

G:----------------------------------------------|

D:--3-3-3---3-3/5-5-5---5-5/3-3-3---3-3/5-5-5---|

A:--3-3-3---3-3/5-5-5---5-5/3-3-3---3-3/5-5-5---|

E:--1-1-1---1-1/3-3-3---3-3/1-1-1---1-1/3-3-3---|

That's all. I know I misseda little piece before the

1st chorus, but it's still good. Enjoy.

Get this song at:  amazon.com sheetmusicplus.com

Share your thoughts

0 Comments found