311

311 - Taiyed guitar tab

'Taiyed'

Performed by 311

From the album "Grassroots" on Capricorn Records

Music by: T. Mahoney & A. Wills

Lyrics by: D. Martinez

(c) 1994 Allegiance Music/Hydroponic Music BMI

---------------

Tabbed by: Josh Tyson (jotyson@vt.edu)

Gregory Parr (gparr@tiger.lsuiss.ocs.lsu.edu)

Additions/Corrections by: Adam Sherrerd (psherrerd@tconl.com)

Phil Kean (treble_charge@hotmail.com)

The 311 Guitar Archive -- http://bigworm.colorado.edu/311archive/

Riff 1 (Clean):

===============

A5 B5 A5 N.C. A5 B5 A5 N.C.

1:------7-7---------------------7-7----------------

2:------7-7---10-10--9-9--------7-7---10-10--b9b-9-

3:-------------9--9--9-9---------------9--9--b9b-9-

4:-7h9---------------------7h9---------------------

5:-7h9---------------------7h9---------------------

6:-------------------------------------------------

Riff 2 (Clean):

===============

E7 (E7) N.C. E7 (E7) E7 (E7) N.C. E7 N.C.

E:---------------------------------------------------------------------------

B:---------------------------------------------------------------------------

G:-7--7-7------7-6-4---7--7-7------7---7--7-7------7-6-4---7--7-7-9-7-9-9-9b-

D:-6--6-6----6---------6--6-6----6-----6--6-6----6---------6--6-6------------

A:-7--7-7--7-----------7--7-7--7-------7--7-7--7-----------7--7-7------------

E:---------------------------------------------------------------------------

Solo:

=====

N.C.

1:-------7-----7-------7-------7-----12-11-10----10----------------

2:--------------------------------------------12----12-11-10----10-

3:-b9b-7---7-6---7-6-7---7-6-7---6-7-------------------------11----

4:-----------------------------------------------------------------

5:-----------------------------------------------------------------

6:-----------------------------------------------------------------

N.C.

1:-----------------------------------------17-14-------------

2:--------------------------------15-14-15-------17-15-14-15-

3:-11-10-9-10-9-10-9-10-9-10-b10b----------------------------

4:-----------------------------------------------------------

5:-----------------------------------------------------------

6:-----------------------------------------------------------

N.C.

1:--------------------21//19-19-19-19-19--21//19-19-19-19-19-17-19-

2:-17-b17b-17b-14--------------------------------------------------

3:----------------14-----------------------------------------------

4:-----------------------------------------------------------------

5:-----------------------------------------------------------------

6:-----------------------------------------------------------------

N.C.

1:-16-17-19-14-16-17----14-----------------------------------------

2:-------------------17----15-14---b19b-19-17-19-17-15-15-15-15-17-

3:-----------------------------------------------------------------

4:-----------------------------------------------------------------

5:-----------------------------------------------------------------

6:-----------------------------------------------------------------

N.C.

1:---------------------14-16-17-16-14----17-16-14----16-14-------------

2:-b19b-19-17-19-17-17----------------17----------17-------17-15-14-15-

3:---------------------------------------------------------------------

4:---------------------------------------------------------------------

5:---------------------------------------------------------------------

6:---------------------------------------------------------------------

N.C.

1:----14----------------------------------------------------------------

2:-17----17-15-14-17-15-14----15-14-------------------------------------

3:-------------------------16-------16-14-13-14-13----------------11-13-

4:-------------------------------------------------14-12-11-12-14-------

5:----------------------------------------------------------------------

6:----------------------------------------------------------------------

N.C.

1:-----------------14-16-17--14-16-17-14-16-17-14-16-17-17-19-21-21-24\\-

2:--------14-15-17-------------------------------------------------------

3:-14//16----------------------------------------------------------------

4:-----------------------------------------------------------------------

5:-----------------------------------------------------------------------

6:-----------------------------------------------------------------------

Lyrics/Song Structure:

======================

---> Play Riff 1 (x4)

---> Play Riff 1 over:

SA:

Returning from the water cold alive and shining

Rock a mic in the afterlife while your moon is rising

Heatin' up forcing steam whirling to be seen

The dark held stars are the frost of my breathing

Swimming through the darkness I'm a ghostly shark

Developing like a photograph slowly in the dark

The hereafter the action the main attraction

One love in all of this that I'm going after

---> Play Riff 2 (x1)

---> Play Riff 1 over:

Now there's fire inside but black space surrounds you

You think "Where oh where am I"

But even your light continues

See through us see a soul we have not yet

Learned to harness see the next world inside it

We are the people of skin who left water

Inside the dark womb inside of our mother

Prone to the beat and vibe of our tribe

We catch the drift and ride moving tides

---> Play Riff 2 over:

Out from a love that will keep on burning

Now see yourself to the next world returning

This life an old place we face to live again

What is it to understand the heareafter

---> Play Riff 2 over Solo

Get this song at:  amazon.com sheetmusicplus.com

Share your thoughts

0 Comments found