311

311 - T P Combo bass tab

'T&P Combo'

Performed by 311

From the album "311" on Capricorn Records

Music by: T. Mahoney & A. Willis

Lyrics by: N. Hexum & D. Martinez

(c) 1995 Allegiance Music/Hydroponic Music BMI

----------

Tabbed by: Mike Ulisse (poly@juno.com)

311 Guitar Archive - http://chromosome.colorado.edu/311archive/Home.html

Riff 1:

=======

G:-----------------------------------------

D:-----------------------------------------

A:------x-x--9--9-x-3-3--4-4--x-x-7-7--3-3-

E:-2-2--x------------------------------1-1-

Riff 2 (w/variations):

======================

Something like:

G:-------------------------------------------------------------------------

D:-------------------------------------------------------------------------

A:-------------------------------------------------------------------------

E:-0-1-1-1-0-1-1-1-0-1-0-1-1-1-0-1-1-1-0-2-2-2-0-2-2-2-0-2-0-2-2-2-0-2-2-2-

Riff 3:

=======

G:-----------------------------------

D:-----------------------------------

A:-7-7-7-7-7-7-7-7-7-7-7-7-7-7-7---8-

E:-----------------------------------

Riff 4:

=======

G:-------------------------------

D:-------------------------------

A:-------------------------------

E:-0-0-0-0-0-0--2-2-2-2--3-3-3-3-

Chorus 1a:

==========

G:----------------------------------------------------------

D:-------5-6-7-6-5------------------------------------------

A:-5-6-7-----------7-6-5------------------------------------

E:-----------------------7-6-5//3---0--3---5--3--0-0--3---5-

Chorus 1b:

==========

G:---------------------------

D:---------------------------

A:---------------------------

E:-3--0--3--5--3--0-0--3---5-

Song Structure:

===============

---> Play Riff 1

---> Play Riff 2

---> Play Riff 3

---> Play Riff 4

---> Play Chorus 1a

---> Play Chorus 1b

---> Play Riff 1

---> Play Riff 2

---> Play Riff 3

---> Play Riff 4

---> Play Chorus 1a

---> Play Chorus 1b

== Last Updated: October 27, 1996 ==

Get this song at:  amazon.com sheetmusicplus.com

Share your thoughts

0 Comments found