311

311 - Strong All Along bass tab

'Strong All Along' -- Bass Tab

Performed by 311

From the album "Soundsystem" on Capricorn Records

Music by: N. Hexum

Lyrics by: N. Hexum & D. Martinez

(c) 1999 Hydroponic Music BMI

---------------

Tabbed by: Justin Reynolds (jxstylez@aol.com)

The 311 Guitar Archive -- http://chromosome.colorado.edu/311archive/

Riff 1:

=======

G:----------------------------------------

D:----------------------------------------

A:----------------------------------------

E:-3-3--3-3--3-3--3-3--0-1--0-1--0-1--0-1-

B:----------------------------------------

Riff 2:

=======

G:--------------------|------------------------

D:--------------------|------------------------

A:-----5-3-2----------|------3-3-3-------------

E:-3-3-------5-3-1----|--1-1-------5-5-3-------

B:-----------------3--|------------------5-(1)-

(2x) (2x)

(Parantheses) second time only

Riff 3:

=======

G:--------------|----

D:-----5-5------|----

A:---5-----5----|----

E:-3---------3--|--1-

B:--------------|----

(x2) (xalot)

Get this song at:  amazon.com

Share your thoughts

0 Comments found