311

311 - Still Dreaming guitar tab

Title: Still Dreaming

Artist: 311

Album: Evolver

Instrument: Guitar

Tabbed by: Ricardo Wright-Ramos (kwa4ever@nycap.rr.com)

Tuning: Standard (E A D G B E)

Nick Verse:

E|---------------------------------||

B|---------------------------------||

G|-5-------------------------------||

D|-5----5----5-5-5-5-5-------------||

A|-3----5----5-5-5-5-5-------------||

E|-3----3----3-3-0-0-0-------------||

S.A. Verse:

E|--------------------------------------------------||

B|--------------------------------------------------||

G|--------------------------------------------------||

D|--------------------------------------------------||

A|--------------------------------------------------||

E|-0-0-3-5-5--0-0-3-5-5--0-0-3-5-5--0-0-7-5-5-------||

Lead Guitar Over S.A. Verse:

E|---------------------------------||

B|---------------------------------||

G|-7-9-7-9-7-9-7-9-7-9-7-9-7-9-7-9-||

D|---------------------------------||

A|---------------------------------||

E|---------------------------------||

Pre-Chorus (Rhythm):

E|------------------------------------------------------------------||

B|------------------------------------------------------------------||

G|------------------------------------------------------------------||

D|-4--2-4--2-4--2-4-2-4---6--4-6--4-6--4-6-4-6---8--8-8--8------8---||

A|-2--0-2--0-2--0-2-0-2---4--2-4--2-4--2-4-2-4---8--8-8--8-5--6-----||

E|-2--0-2--0-2--0-2-0-2---4--2-4--2-4--2-4-2-4---6--6-6--6----------||

Pre-Chorus (Lead):

E|---------------------------------||

B|---------------------------------||

G|-6~--6h9p8~--6h8p7~--------------||

D|---------------------------------||

A|---------------------------------||

E|---------------------------------||

Chorus:

E|----------------------------------------------------------||

B|----------------------------------------------------------||

G|----------------------------------------------------------||

D|-8-8-X-8-8----------8---8-8-8-8-8-----------8-------------||

A|-8-8-X-8-8-5~-5-6-8-----8-8-8-8-8-5~--5-6-8---------------||

E|-6-6-X-6-6--------------6-6-6-6-6-------------------------||

Post-Chorus:

E|----------------------------||

B|----------------------------||

G|----------------------------||

D|----------------------------||

A|---------------------5------||

E|-6-8-6---4-6-4---3----------||

Get this song at:  amazon.com sheetmusicplus.com

Share your thoughts

0 Comments found