311

311 - Stealing My Girl guitar tab

Artist-311

Album-rockers demo

Tuning Drop D

intro

e|----------------------------------------------------------------------|

B|--2-2-2-2-2-2-2-2--7-7-7-8-8-7-7-7-7-7-7-8-8-7-7----------------------|

G|--2-2-2-2-2-2-2-2--7-7-7-7-7-7-7-7-7-7-7-7-7-7-7----------------------|

D|--2-2-2-2-2-2-2-2--7-7-7-7-7-7-7-7-7-7-7-7-7-7-7----------------------|

A|--0-0-0-0-0-0-0-0--5-5-5-5-5-5-5-5-5-5-5-5-5-5-5----------------------|

D|----------------------------------------------------------------------|

Fill 1

e|----------------------------------------------------------------------|

B|----------------------------------------------------------------------|

G|----------------------------------------------------------------------|

D|--10-10-9-10-9-5-7----------------------------------------------------|

A|--10-10-9-10-9-5-7----------------------------------------------------|

D|--10-10-9-10-9-5-7----------------------------------------------------|

Chorus

e|----------------------------------------------------------------------|

B|-2-2-2-2--2-2-2-2--2-2-2--7-7-7-7--7-7-7-7--7-7-7---------------------|

G|-2-2-2-2--2-2-2-2--2-2-2--7-7-7-7--7-7-7-7--7-7-7--x2-----------------|

D|-2-2-2-2--2-2-2-2--2-2-2--7-7-7-7--7-7-7-7--7-7-7---------------------|

A|-0-0-0-0--0-0-0-0--0-0-0--5-5-5-5--5-5-5-5--5-5-5---------------------|

D|----------------------------------------------------------------------|

heavy distortion

e|----------------------------------------------------------------------|

B|----------------------------------------------------------------------|

G|----------------------------------------------------------------------|

D|----------------------------------------------------------------------|

A|-4-44-4h6-4--4-0-0-0-2-2-2-2-x8---4-44444-44444-44444-----------------|

D|-4-44-4h6-4--4-0-0-0-2-2-2-2------4-44444-44444-44444-----------------|

P PP PPP P P P P P P P P P P PPPPP PPPPP PPPPP

Fill2

e|----------------------------------------------------------------------|

B|----------------------------------------------------------------------|

G|----------------------------------------------------------------------|

D|----------------------------------------------------------------------|

A|----------------------------------------------2-2-2-0-0-0-0-0---------|

D|--4-4-6-6-4--4-4-6-6-4--4-6-6-4--4-2-2-2-2-x3-2-2-2-0-0-0-0-0---------|

ending

e|----------------------------------------------------------------------|

B|----------------------------------------------------------------------|

G|-2--4--6--7--2--------------------------------------------------------|

D|-2--4--6--7--2--------------------------------------------------------|

A|-0--2--4--5--0--------------------------------------------------------|

D|----------------------------------------------------------------------|

listen to song for the for song structure.Added by tabs-database.com and our distinguished partners

Get this song at:  amazon.com sheetmusicplus.com

Share your thoughts

0 Comments found