311

311 - Sometimes Jacks Rule The Realm guitar tab

tabs-database.com[http://www.tabs-database.com.com/]

Band: 311

Song: Sometimes Jacks Rule the Realm

Album: Evolver (2003)

Music By: Nick Hexum

Lyrics By: Nick Hexum

Tabbed By: Brad Johnson

webmaster at tabs-database.com.com

RIFF 1

e:----------------------------------------------------

B:----------------------------------------------------

G:----4------4------4------4------4------4------4-----

D:-2----2-2----2-2----2-2----2-0----0-0----0-0----0-0-

A:----------------------------------------------------

E:----------------------------------------------------

---------------------------------------------------------------

---------------------------------------------------------------

---------------------------------------------------------------

-4------4------4------4------4---------------------------------

---0------0------0------0------0----0------0------0------0-----

-----3------3------3------3-----------4------4------4------4---

---------------------------------2------2------2------1------0-

RIFF 2 (guitar #1)(only chords, strumming pattern not included)

e:-0--2--0--2--1-

B:-0--3--1--2--1-

G:-0--2--0--3--2-

D:-2--0--2--4--3-

A:-2-----3--4--3-

E:-0--------2--1-

RIFF 2 (guitar #2)(played by a mandolin)

e:-------12-------12-------12-------12-------12----12-14-(x8)-12-15-(x8)-

B:-15-15----15-15----15-15----15-15----15-15----15-12-12------12-12------

G:-----------------------------------------------------------------------

D:-----------------------------------------------------------------------

A:-----------------------------------------------------------------------

E:-----------------------------------------------------------------------

-11-14-(x8)-12-14-(x8)-

-12-12------12-12------

-----------------------

-----------------------

-----------------------

-----------------------

-----------------------

RIFF 4 (only chords, strumming pattern not included)

e:-0--2--0--2--2--0--2--2--2-

B:-0--3--2--2--3--2--2--3--2-

G:-0--2--2--3--4--2--3--4--3-

D:-2--0--2--4--4--2--4--4--4-

A:-2-----0--4--2--0--4--2--4-

E:-0--------2--------2-----2-

RIFF 5 (guitar #1)

e:---0-------0-------0-----0-------|---------------------------------

B:-----3-------3-------2-----2-----|-----0-------0-------0-------0---

G:-5-----5-3-----3-2-----2-----2-0-|---0---0---0---0---6---6---6---6-

D:---------------------------------|-3-------5-------7-------7-------

A:---------------------------------|---------------------------------

E:---------------------------------|---------------------------------

SOLO 1 (guitar #2)

e:-------------------------------------------------------------------------

B:-14h15-14-12-------------------------------------------------------------

G:-------------12/14-------------------------------------------------------

D:-------------------14---1412-11----------11-----------------------------

A:---------------------------------12-12/14------------12/14---------12/14-

E:-----------------------------------------------10/12---------10/12-------

--------------------------10-9-10-10/12----------------12p10-10p9-------

-----------------12-12/14-----------------------------------------------

-----------12-14-------------------------12-12-12h14--------------12h14-

-----12-14--------------------------------------------------------------

--14--------------------------------------------------------------------

------------------------------------------------------------------------

-------------------------------------------9-

------------------------------------------10-

--9/12------9/12------12/9------12/9---------

-------9/11------9/11------9/11------9/11----

---------------------------------------------

---------------------------------------------

RIFF 6 (guitar #1)

e:---------------------------------------------

B:---------------------------------------------

G:---------------------------------------------

D:-----0h2---0h2---0h2-------0h2---0h2---0h2---

A:-3-3-----3-----3-----3-----------------------

E:-----------------------1-1-----1-----1-----1-

RIFF 6 (guitar #2)(only chords, strumming pattern not included)

e:-0--1-

B:-1--1-

G:-0--2-

D:-2--3-

A:-3--3-

E:----1-

SOLO 2 (guitar #2 keeps playing riff 6 over this)

e:----------------------------------------------------------------------------

B:------------------------------------------------------17-17-15--13h15-17-17-

G:-12/14-17-17-14--17-17-14x17-17-1412--12/14-17-17-14-----------------------

D:----------------------------------------------------------------------------

A:----------------------------------------------------------------------------

E:----------------------------------------------------------------------------

---------------------------17-15-15\\\\-----------15-13-12---------

-----------------17--17-15-------------------13----------15-13\\\\-

-12/14-17-17-14------------------------12-14---------------------

-----------------------------------------------------------------

-----------------------------------------------------------------

-----------------------------------------------------------------

RIFF 7 (only chords, strumming pattern not included)

e:-0--1-

B:-1--1-

G:-0--2-

D:------

A:------

E:------

RIFF 8 (guitar #1)(only chords, strumming pattern not included)

e:------

B:------

G:-5--5-

D:-5--3-

A:-3--3-

E:------

RIFF 8 (guitar #2)(only chords, strumming pattern not included)

e:-8--3-

B:-8--3-

G:------

D:------

A:------

E:------

That\\'s it. When you\\'re listening to this song, it sounds like it would be pretty

hard, but it really isn\\'t once you get the hang of it. Well...have fun and please

rate this!

Added by tabs-database.com and our distinguished partners

Get this song at:  amazon.com

Share your thoughts

0 Comments found