311

311 - Slinky Girl bass tab

SONG:SLINKY GIRL

ARTIST:311

I'M NOT SURE IF THE OTHER SONG SLINKY THAT ANOTHER GUY POSTED IS THIS SAME

SONG, BUT IF IT IS, THAT GUY WAS WAY OFF, THIS IS THE RIGHT WAY TO PLAY IT.

I PLAY THIS SONG IN MY BAND WITH MY FIVE STRING, I'M SURE YOU CAN PLAY IT WITH

A FOUR STRING BUT FOR ALL YOU PEOPLE WHO HAVE THEM AND WANT ME TO DO IT FOR

YOU, HA! RIGHT YOU FIGURE IT OUT.

I SLAP ALL THE NOTES, I THINK IT SOUNDS BETTER, YOU CAN PLAY IT NORMAL BUT IT

JUST DOESN'T SOUND THE SAME.

RIFF 1 4X

G|--------------|-------------

D|--------------|-------------

A|----8----10-8-|-------------

E|-10---10------|-10----10----

B|--------------|----11----11-

RIFF 2 P-NUT DOES A LOT OF DIFFERENT VARIATIONS ON THIS

G|---------------------------------------------------8---9---10-

D|-------------------8---8---8-------------------8--------------

A|-----8---8---8--------------------8---8---8------6---7---8----

E|-----------------6---6---6-------------------6----------------

B|---6---6---6--------------------6---6---6---------------------

RIFF 3

G|-----------------------------------------------------------------8---9---10-

D|-------------------------------------------------------------8--------------

A|-------------------5-6-8---------------------------------------6---7---8----

E|---6---6-----6---6-------------6-6-------6---------6-6-----6----------------

B|-6---6---8-6---6---------6-6-6-----6-6-6---8-6-6-6-----6-6------------------

RIFF 4

G|---------------------------------------------------------------

D|-----------------------------------------------------8---8---8-

A|-------------------5-----------5-----------5-------------------

E|-6-6-6-6-----5-6-8-------5-6-8-------5-6-8-------5-6---6---6---

B|---------6-8---------6-8---------6-8---------6-8---------------

RIFF 5

G|-----------------------------------------------

D|-----------------------------------------------

A|---6-------------6-----------6-------------6---

E|-8---8-8-----6-8---8-8---6-8---8-8-----6-8---8-

B|---------8-8-----------8-----------8-8---------

RIFF 6

G|-----------

D|-----------

A|-----------

E|---6---6---

B|-6---6---6-

RIFF 7

G|--------8--------8-8-8-8----

D|-----10---8-8-10---------10-

A|-8-8------------------------

E|----------------------------

B|----------------------------

RIFF 8

G|---------------------------------

D|---------------------------------

A|---------------------------------

E|---------6-4-3-4---------6-4-3-4-

B|-6-8-6-8---------6-8-6-8---------

RIFF 9

G|------8-8------8-8-----------

D|-8-10-----8-10-----8-6-5-6-5-

A|-----------------------------

E|-----------------------------

B|-----------------------------

RIFF 10

G|---------

D|---8---8-

A|-8---8---

E|---------

B|---------

PLAY LIST

1X1

2X2

3X1

2X1

4X1

2X1

1X1

2X2

5X2

6X1

4X1

2X1

1X1

7X4

8X2

9X3

4X1

6X1

10X1

2X1

1X1

THERE YOU GO, QUESTIONS???

PLEASE NO NEGATIVE COMMENTS!

SEND TO: MOUNTAIN_BEAVER69@YAHOO.COM

THE BEAVER HAS SPOKEN!

Get this song at:  amazon.com

Share your thoughts

0 Comments found