311

311 - Sick Tight guitar tab

'Sick Tight'

Performed by 311

From the album "From Chaos" on Volcano Records

Music by: [Unknown]

Lyrics by: [Unknown]

(c) 2000/2001 Hydroponic Music BMI

---------------

Tabbed by: Ryan Abts (PhishHippo@aol.com)

The 311 Guitar Archive -- http://bigworm.colorado.edu/311archive/

= natural harmonic

Riff 1 (w/Distortion):

======================

N.C.

e:---------------------------------------

B:---------------------------------------

D:---------------------------------------

G:---------------------------------------

A:---------4---------4---------4-----7-6-

E:-2-4-0-2-4-2-4-0-2-4-2-4-0-2-4-2-4-7-6-

Riff 2 (w/Distortion):

======================

N.C.

e:--------------------------------------

B:--------------------------------------

D:--------------------------------------

G:--------------------------------------

A:--------------------------------------

E:----------

Fill 1 (w/Distortion):

======================

N.C.

e:---------

B:---------

D:---------

G:---------

A:-4-6-----

E:-----0-4-

Chorus (w/Distortion):

======================

F#5 G5

e:-------------------------------------

B:-------------------------------------

D:-------------------------------------

G:-------------------------------------

A:-4-4-x-4-4-x-4-4-4-5-5-x-5-5-x-5-5-5-

E:-2-2-x-2-2-x-2-2-2-3-3-x-3-3-x-3-3-3-

E5 F#5

e:-------------------------------------

B:-------------------------------------

D:-------------------------------------

G:-------------------------------------

A:-2-2-x-2-2-x-2-2-2-4-4-x-4-4-x-4-4-4-

E:-0-0-x-0-0-x-0-0-0-2-2-x-2-2-x-2-2-2-

Bridge (w/Distortion):

======================

N.C.

e:---------------------------------

B:---------------------------------

D:---------------------------------

G:---------------------------------

A:---------------------------------

E:---------

e:---------------------------------

B:---------------------------------

D:---------------------------------

G:---------------------------------

A:---------------------------------

E:---------

Lyrics/Song Structure:

======================

[Not yet available]

Get this song at:  amazon.com sheetmusicplus.com

Share your thoughts

0 Comments found